Naruto - sadness and sorrow

Acordes de la canción 'Naruto - sadness and sorrow' de Música de TV

Versiones de esta canción: Tablatura para guitarra (TAB) - Tablatura para guitarra (TAB)

Sadness And Sorrow (Tema triste naruto)
  Intro
E|--2-----2-----2-----2-----|--0-----0-----0-----0-----|   Esta es la
B|--0-----0-----0-----0-----|--0-----0-----0-----0-----|   version
G|--------------------------|--------------------------|   original
D|-----2-----2-----2-----2--|-----2-----2-----2-----2--|   disfrutenla
A|--------------------------|--------------------------|
E|--------------------------|--------------------------|

E|--------------------------|--------------------------|
B|--5-----5-----5-----5-----|--3-----3-----3-----3-----|
G|--4-----4-----4-----4-----|--4-----4-----4-----4-----|
D|-----4-----4-----4-----4--|-----4-----4-----4-----4--|
A|--------------------------|--------------------------|
E|--------------------------|--------------------------|

E|--------------------------|--------------------0-----|
B|--3-----3-----3-----3-----|--1-----1-----1-----------|
G|--2-----2-----2-----2-----|--2-----2-----2-----2-----|
D|-----2-----2-----2-----2--|-----2-----2-----2-----2--|
A|--------------------------|--------------------------|
E|--------------------------|--------------------------|

E|--5-----5-----5-----5-----|--7-----7-----------------|
B|--------------------------|--------------7-----7-----|
G|--4-----4-----4-----4-----|--4-----4-----4-----4-----|
D|-----4-----4-----4-----4--|-----4-----4-----4-----4--|
A|--------------------------|--------------------------|
E|--------------------------|--------------------------|
  Entra la guitarra
E|--------3--2--------|--------3--2-------------|
B|----------------3---|----------------0--------|
G|--------------------|-------------------------|
D|-----2--------------|-----2-------------------|
A|--------------------|-------------------------|
E|--0-----------------|--0----------------------|


E|--2--0-------0----0--3---|--5-----------------------|
B|--------0----3-----------|--------5-----------------|
G|-------------0-----------|--------5-----5-----5-----|
D|-------------2-----------|-----5-----5-----5-----5--|
A|-------------------------|--3-----------------------|
E|--0----------------------|--------------------------|


E|--3--------3--2--3--5-----|--7-----7---5--------2---|
B|--------3--------------3--|------------------3------|
G|-----2--------------------|-----7---------2---------|
D|--0-----------0-----------|--5---------0------------|
A|--------------------------|-------------------------|
E|--------------------------|-------------------------|

E|--2--0-------0----0--3--|--5-----------------------|
B|--------0----3----------|--------5-----------------|
G|-------------0----------|--------5-----5-----5-----|
D|-------------2----------|-----5-----5-----5-----5--|
A|------------------------|--3-----------------------|
E|--0---------------------|--------------------------|

E|--3--------3--2--5-------|--0-----3--2-------|
B|--------3-----------3----|--------------3----|
G|-----2-------------------|-------------------|
D|--0-----------0----------|-----2-------------|
A|-------------------------|-------------------|
E|-------------------------|--0----------------|


E|--------3--2----0--2--3--|--5--7--0--3--2--------|
B|----------------0--------|--------0-----------3--|
G|-------------------------|-----------------2-----|
D|-----2-------------------|--------------0--------|
A|-------------------------|--3--------------------|
E|--0----------------------|-----------------------|

E|--0----------0------|--3--5--3--2-------7--|
B|-------0---------0--|--------------3-------|
G|--------------------|--------0-------------|
D|----2-----2---------|--------------0----7--|
A|--------------------|--3-------------------|
E|--0-----------------|----------------------|

E|--7-----------5-----2-----|--5--7--0--3-----2--------|
B|-----------0-----------3--|--------------------3-----|
G|--------0--------2--------|--------0--------------2--|
D|-----0--------0-----------|--------------0-----------|
A|--------------------------|--3-----------------------|
E|--3-----------------------|--------------------------|

E|--0----------3--2---0--|--3--5--3--2-----------------|
B|-----------------------|--------1-----3------0----0--|
G|--------0--------------|-----------------------------|
D|-----2-----------------|-----2--------0--------------|
A|-----------------------|--3--------------------------|
E|--0--------------------|-----------------------------|
Fin con arpegio
E|--0-----0-----------0-----|--------0-----------0-----|
B|-----------1-----------1--|-----------0-----------0--|
G|-----0-----------0--------|-----0-----------0--------|
D|--------------------------|--------------------------|
A|--3-----------3-----------|--2-----------2-----------|
E|--------------------------|--------------------------|

E|--------0-----------0-----|--------0-----------0-----|
B|-----------1-----------1--|-----------0-----------0--|
G|-----0-----------0--------|-----0-----------0--------|
D|--------------------------|--------------------------|
A|--3-----------3-----------|--2-----------2-----------|
E|--------------------------|--------------------------|

E|--------0-----------0-----|--------0------0--|
B|-----------1-----------1--|-----------0---0--|
G|-----0-----------0--------|-----0---------0--|
D|--------------------------|------------------|
A|--3-----------3-----------|--2------------2--|
E|--------------------------|------------------|
Versión 2 - Naruto - sadness and sorrow (Tablatura para guitarra (TAB))
bueno esto es pa los fans de Naruto y nada mas ke esta
grasias vten JuanKarloz..¡






     H.              H.              H.              H.
E||---------------|---------------|---------------|---------------|
B||---------------|---------------|---------------|---------------|
G||---------------|---------------|---------------|---------------|
D||---------------|---------------|---------------|---------------|
A||---------------|---------------|---------------|---------------|
E||---------------|---------------|---------------|---------------|


  H.              H.              H.              W
---------------|---------------|---------------|-------------------|
---------------|---------------|---------------|-------------------|
---------------|---------------|---------------|-------------------|
---------------|---------------|---------------|-------------------|
---------------|---------------|---------------|-------------------|
---------------|---------------|---------------|-------------------|


  W                   W                   W
-------------------|-------------------|-------------------|
-------------------|-------------------|-------------------|
-------------------|-------------------|-------------------|
-------------------|-------------------|-------------------|
-------------------|-------------------|-------------------|
-------------------|-------------------|-------------------|


  W                   W                   W
-------------------|-------------------|-------------------|
-------------------|-------------------|-------------------|
-------------------|-------------------|-------------------|
-------------------|-------------------|-------------------|
-------------------|-------------------|-------------------|
-------------------|-------------------|-------------------|


  W                   W                   W
-------------------|-------------------|-------------------|
-------------------|-------------------|-------------------|
-------------------|-------------------|-------------------|
-------------------|-------------------|-------------------|
-------------------|-------------------|-------------------|
-------------------|-------------------|-------------------|


  W                   H
-------------------|--------------------------|
-------------------|--------------17--19--20--|
-------------------|--------------------------|
-------------------|--------------------------|
-------------------|--------------------------|
-------------------|--------------------------|



--17--19--------------------|--------------------|
----------17--20----19------|--17----------------|
----------------------------|--------------------|
----------------------------|--------------------|
----------------------------|--------------------|
----------------------------|--------------------|


------17--------------19----|--19--------17--------|
--20------20--19------------|----------------------|
----------------------------|----------------------|
----------------------------|----------------------|
----------------------------|----------------------|
----------------------------|----------------------|



--17--19--------------------|--------------------|
----------17--20----19------|--17----------------|
----------------------------|--------------------|
----------------------------|--------------------|
----------------------------|--------------------|
----------------------------|--------------------|



------17----------------------|---------------------|-------------------|
--20------20--19--------------|--17-----------------|-------------------|
----------------------16---16-|---------------------|-------------------|
------------------------------|---------------------|-------------------|
------------------------------|---------------------|-------------------|
------------------------------|---------------------|-------------------|


  W                   W                   W
-------------------|-------------------|-------------------|
-------------------|-------------------|-------------------|
-------------------|-------------------|-------------------|
-------------------|-------------------|-------------------|
-------------------|-------------------|-------------------|
-------------------|-------------------|-------------------|


  W                   W                   W                   H
-------------------|-------------------|-------------------|-----------|
-------------------|-------------------|-------------------|-----------|
-------------------|-------------------|-------------------|-----------|
-------------------|-------------------|-------------------|-----------|
-------------------|-------------------|-------------------|-----------|
-------------------|-------------------|-------------------|-----------|


--17--19----------------------|--------------------|
----------17--20------19------|--17----------------|
------------------19----------|--------------------|
------------------------------|--------------------|
------------------------------|--------------------|
------------------------------|--------------------|




------17---------------19----|--19--------17--------|
--20------20--19--L----------|--20--------19--------|
-----------------------------|--19--------19--------|
-----------------------------|----------------------|
-----------------------------|----------------------|
-----------------------------|----------------------|



--17--19-----------------------|--------------------|
----------17--20------19--L----|--17----------------|
------------------19-----------|--------------------|
-------------------------------|--------------------|
-------------------------------|--------------------|
-------------------------------|--------------------|



------17---------------------|---------------------------|
--20------20--19--L----------|--17--------L--------------|
-----------------------------|---------------17--19--21--|
-----------------------21----|--17--------L--------------|
-----------------------------|---------------------------|
-----------------------------|---------------------------|



--20--------L----L----|----------------------------------|
----------------------|--------------------------15--17--|
----------------------|----------------------16----------|
----------------------|----------14--16--17--------------|
----------------------|------14--------------------------|
----------------------|--12------------------------------|



--14--------------22--L--------||
------(20)--(24)---------------||
-------------------------------||
-------------------------------||
-------------------------------||
-------------------------------||

El material contenido en esta página es para exclusivo uso privado y con propósito meramente educativo, se prohibe su reproducción y uso con fines comerciales