Narcos - Tuyo

Acordes de la canción 'Narcos - Tuyo' de Música de TV

Intro:
E|--16-14----------------------17--16-14----------------------------------|
B|--------17-16-14-13-14h16-13-----------17-16-14-16h17-14-14-------------|
G|------------------------------------------------------------------------|
D|------------------------------------------------------------------------|
A|------------------------------------------------------------------------|
E|------------------------------------------------------------------------|

E|--16-14------------------------------------------------14-17-16-14-17-16|
B|--------17-16-14-13-14h16--14-13---13-14-16---14-16-17------------------|
G|------------------------------------------------------------------------|
D|------------------------------------------------------------------------|
A|------------------------------------------------------------------------|
E|------------------------------------------------------------------------|

C#m - F#m/D# - G#7
C#m - F#m/D# - G#7
A - G#7 - C#m

       C#m               F#m
Soy el fuego que arde tu piel
G#7             C#m
Soy el agua que mata tu sed
                 F#m
El castillo, la torre yo soy
G#7             C#m       C#7
La espada que guarda el caudal
                 F#m
Tu el aire que respiro yo
B7           E                 A
Y la luz de la luna en el mar
                F#m
La garganta que ancio mojar
G#7                 C#m
Que temo ahogar de amor
F#m                    C#m
Y cuales deseos me vas a dar
  F#m               G#7
Dices tu, Mi tesoro basta con mirarlo
C#m       G#7     C#m
Y Tuyo sera, y tuyo sera

   C#m                F#m
E|-16-15-14---------------------17-|
B|----------17-16-14-14h16---------|
G|-------------------------13-13---|
D|---------------------------------|
A|---------------------------------|
E|---------------------------------|

  G#7             C#m
E|16-15-14---------------------|
B|---------17-16-16h17-14--14--|
G|-----------------------------|
D|-----------------------------|
A|-----------------------------|
E|-----------------------------|

   C#m                F#m
E|-16-15-14-----------------------|
B|----------17-16-14-14h16-14-13--|
G|--------------------------------|
D|--------------------------------|
A|--------------------------------|
E|--------------------------------|

   G#7        C#m         G#7         (C#m)
E|---------------------14-17-16-14-17-16~----|
B|-13-14-16---14-16-17-----------------------|
G|-------------------------------------------|
D|-------------------------------------------|
A|-------------------------------------------|
E|-------------------------------------------|


C#m              F#m
Soy el fuego que arde tu piel
G#7             C#m
Soy el agua que mata tu sed
C#m             F#m
El castillo, la torre yo soy
G#7             C#m
La espada que guarda el caudal

C#7             F#m
Tu el aire que respiro yo
B7           E
Y la luz de la luna en el mar
Amaj7               F#m
La garganta que ancio mojar
G#7                 C#m
Que temo ahogar de amor
F#m                  G#7
Y cuales deseos me vas a dar?
F#m             G#7
Dices tu, "Mi tesoro basta con mirarlo
C#m       G#7      C#m
Tuyo sera, y tuyo sera"


Acordes:
         E A D G B E
F#m/D# : X 6 7 6 7 X
G#7    : 4 X 4 5 4 X

El material contenido en esta página es para exclusivo uso privado y con propósito meramente educativo, se prohibe su reproducción y uso con fines comerciales