Mi corazón es tuyo - yo voy contigo

Acordes de la canción 'Mi corazón es tuyo - yo voy contigo' de Música de TV

Versiones de esta canción: Letra y acordes - Tablatura para guitarra (TAB)

Brisa Carrillo - Yo voy contigo

SOL
Si sientes frío
MIm7
Y hay mucha niebla
DO     SOL
Si las estrellas
LAm          RE
Esconden su brillo.

SOL
SI MI princesa
MIm7
Perdió su castillo
DO            SOL
Jugando en la arena
      LAm            RE
Solo recuerda Yo voy contigo.
SOL
Te abrazaré Cuando te sientas sola
SOL
Te enseñaré Como cruzar las olas
LAm           SIm     DO
Te cuidare si estas dormida
SOL
Te encenderé una luz en la mirada
SOL
Para que nunca te de miedo nada
LAm         SIm     DO         SOL
Y vuelvas a soñar tranquila.
Versión 2 - Mi corazón es tuyo - yo voy contigo (Tablatura para guitarra (TAB))
Intro
  G
e 3---3---5---5---|2---2---3---3---|
B --3---3---3---3-|--3---3---3-----|
G 0---------------|0---------------|
D ----------------|----------------|
A ----------------|----------------|
E ----------------|----------------|

  Em7
e 3---3---2---2---|0---0---2---2---|
B --3---3---3---3-|--3---3---3-----|
G ----------------|----------------|
D 2---------------|2---------------|
A ----------------|----------------|
E ----------------|----------------|

  Csus2
e 3---3---5---5---|3---3---5---5---|
B --3---3---3---3-|--3---3---3-----|
G ----------------|----------------|
D ----------------|----------------|
A 3---------------|3---------------|
E ----------------|----------------|

  D7
e 3---3---2---2---|0---0---2-------|
B --1---1---1---1-|--1---1---------|
G ----------------|----------------|
D 0---------------|0---------------|
A ----------------|----------------|
E ----------------|----------------|

Verse
  G
e 3---3---5---5---|2---2---3---3---|
B --3---3---3---3-|--3---3---3---3-|
G 0---------------|0---------------|
D ----------------|----------------|
A ----------------|----------------|
E ----------------|----------------|

  Em7
e 3---3---2---2---|0---0---2---2---|
B --3---3---3---3-|--3---3---3---3-|
G ----------------|----------------|
D 2---------------|2---------------|
A ----------------|----------------|
E ----------------|----------------|

  Csus2            G/B
e 3---3---5---3---|3---3---5---3---|
B --3---3---3-----|--3---3---3-----|
G ----------------|----------------|
D ----------------|----------------|
A 3---------------|2---------------|
E ----------------|----------------|

  Am7              D7
e 3---3---5---3---|3---3---2-------|
B --1---1---1-----|--1---1---------|
G ----------------|----------------|
D ----------------|0---------------|
A 0---------------|----------------|
E ----------------|----------------|

Verse
  G
e 3---3---5---5---|2---2---3---3---|
B --3---3---3---3-|--3---3---3---3-|
G 0---------------|0---------------|
D ----------------|----------------|
A ----------------|----------------|
E ----------------|----------------|

  Em7
e 3---3---2---2---|0---0---2---2---|
B --3---3---3---3-|--3---3---3---3-|
G ----------------|----------------|
D 2---------------|2---------------|
A ----------------|----------------|
E ----------------|----------------|

  Csus2            G/B
e 3---3---5---3---|3---3---5---3---|
B --3---3---3-----|--3---3---3-----|
G ----------------|----------------|
D ----------------|----------------|
A 3---------------|2---------------|
E ----------------|----------------|

  Am7              D7
e 3---3---5---3---|3---3---2-------|
B --1---1---1---1-|--1---1---------|
G ----------------|----------------|
D ----------------|0---------------|
A 0---------------|----------------|
E ----------------|----------------|

Chorus
  Csus2            G/B
e 3---3---3---3---|3---3---3---3---|
B 3---3---3---3---|3---3---3---3---|
G --0---0---0---0-|--0---0---0-----|
D ----------------|----------------|
A 3---------------|2---------------|
E ----------------|----------------|

  Am7     G/B      Csus2   D
e 0---0---2---2---|3---3---3---2---|
B 1---1---3---3---|3---3---1---1---|
G --2---0---0---0-|--0---0---2-----|
D ----------------|--------0-------|
A 0-------2-------|3---------------|
E ----------------|----------------|

  Csus2            G/B
e 3---3---3---5---|3---3---3---3---|
B 3---3---3-------|3---3---3---3---|
G --0---0---0---0-|--0---0---0-----|
D ----------------|----------------|
A 3---------------|2---------------|
E ----------------|----------------|

  Am7     G/B      Csus2 (slow)
e 3---3---2---2---|3---3-----------|
B 1---1---3---3---|3-----3---------|
G --0---0---0---0-|--0-----0-------|
D ----------------|----------------|
A 0-------2-------|3---------------|
E ----------------|----------------|

Outro
  G
e 3---3---5---5---|2---2---3---3---|
B --3---3---3---3-|--3---3---3-----|
G 0---------------|0---------------|
D ----------------|----------------|
A ----------------|----------------|
E ----------------|----------------|

  Em7
e 3---3---2---2---|0---0---2---2---|
B --3---3---3---3-|--3---3---3-----|
G ----------------|----------------|
D 2---------------|2---------------|
A ----------------|----------------|
E ----------------|----------------|

  Gsus2
e 5---------------||
B 8---------------||
G 7---------------||
D 5---------------||
A ----------------||
E ----------------||

El material contenido en esta página es para exclusivo uso privado y con propósito meramente educativo, se prohibe su reproducción y uso con fines comerciales