Marcha al templo corona

Acordes de la canción 'Marcha al templo corona' de Música de TV

Marcha al templo corona By Alan ”El MEx”
Pueden chekar como toco esta rola en:

http://mx.youtube.com/watch?v=XW1xWdD0a5g

               ->Facil<-
=O Dificultad :  Intermedio
                 Dificil



---------------------------------------------
-----17-16--16-17------12-13-12-16-15-13-----
-12a-------------14--14-------------------14-
---------------------------------------------
---------------------------------------------
---------------------------------------------


---------------------------------------------
------10--10-12-13---13---16-17-----
-10-12-----------------------------------
---------------------------------------------
---------------------------------------------
---------------------------------------------


--15-14-14-12-12---15-17-15-14-12---15-14-14-12-11-----
-----------------12---------------12--------------13---
----------------------------------------------------14--
---------------------------------------------------------
---------------------------------------------------------
--------------------------------------------------------

---------------------------------------------
-----17-16--16-17------12-13-12-16-15-13-----
-12a-------------14--14-------------------14-
---------------------------------------------
---------------------------------------------
---------------------------------------------


---------------------------------------------
------10--10-12-13---13---16-17-----
-10-12-----------------------------------
---------------------------------------------
---------------------------------------------
---------------------------------------------


--15-14-14-12-12---15-17-15-14-12---15-14-14-12-11-----
-----------------12---------------12--------------13---
----------------------------------------------------14--
---------------------------------------------------------
---------------------------------------------------------
--------------------------------------------------------



Dudas, quejas, sugerencias, consejos
regaños, mentadas XD esas aka --> kraken_x1@hotmail.com
Saludos desde Morelia,Michoacán, México

El material contenido en esta página es para exclusivo uso privado y con propósito meramente educativo, se prohibe su reproducción y uso con fines comerciales