Malviviendo - intro

Acordes de la canción 'Malviviendo - intro' de Música de TV

----0----0--------2----2--2---|----0----0-------------2--2
----0----0--------2----4--4---|----0----0---------2---4--4
----0----0--------3----2--2---|----0----0--------3----2--2
------------------------------|---------------------------
--------------------2---------|---------------------2-----
-0-----0---0-1-2--------------|-0-----0---0-1-2-----------

----0----0---------------2--2-|------------3--------------
----0----0----------2----4--4-|--------5-----5------------
----0----0---------------2--2-|-------3--------3----------
------------------4-----------|------5-----------5--------
----------------------2-------|--3--3--------------3------
-0-----0---0-1-2--------------|---------------------------

---3------2--2----------------|
---5------4--4----------------|
---3------2--2----------------|
------------------------------|
-3-----2----------------------|
------------------------------|

Esta frase se repite un par de veces.
En el final se toca toda esta frase y se termina con un acorde de Mi menor:

-----
-----
-----
-----
--2--
--2--
--0--

El material contenido en esta página es para exclusivo uso privado y con propósito meramente educativo, se prohibe su reproducción y uso con fines comerciales