Los Simpson

Acordes de la canción 'Los Simpson' de Música de TV

Versiones de esta canción: Tablatura para guitarra (TAB) - Tablatura para guitarra (TAB) - Tablatura para guitarra (TAB)

esta parte de la cancion la saque un dia que veia los simpson..
asi que si tiene errores es porque la hice sin muchas ganas xD.

asi empieza:

e. ------------------------------------------------------------
B. ------------------------------------------------------------
G -------------2--0--------------------------------------------
D. -----2--4---------2-----------------------------------------
A. --3--------------------3--0---------------------------------
E. ------------------------------2--2--2--3--2--2--2--3--3-----

este es el final:

e. ------------------------------------------------------------
B. ------------------------------------------------------------
G -------------------------------------------------------------
D. ------------------------------------------------------------
A. ---------------------------------3--3--3--3--3-3-3----------
E. --2--2--2--3--2--2--2--3--3---------------------------------

Y este es el final de "gracie films" que sale ya que se acaba la
 cancion.

e ----------------------------------
B ----------------------------------
G ------------2--0------------------
D ---0/2--4---------4--2--0--0------
A ----------------------------------
E ----------------------------------
Versión 2 - Los Simpson (Tablatura para guitarra (TAB))
Hola soy pato
agreguenme
pato_0806@hotmail.com
patricirobertog@hotmail.com
pato_kpo@yahoo.com.ar
****************************

E----------------------------------------------------
A----------------------------------------------------
D----------------------------4-4-4-------------------
g------------------------2---------0-----------------
b-1-------------------1------------------------------
e-----0---2--5-3-0-----------------------------------


E--------------------------------------------------------
A--------------------------------------------------------
D----------------------------4-4-4----4-4-4----------------
g------------------------2---------0--------0-------------
b-1-------------------1------------------------0---2-2-2-3
e-----0---2--5-3-0-----------------------------------------
Versión 3 - Los Simpson (Tablatura para guitarra (TAB))
Ps s mi primera transcripcion q subo ii pz spero
ke les guzte despues les pongo lo demaz ii pzz
la kanzion no es de taller para niñoz la puse
aka pk pzz no avia artista de los simpsonz ii pzz
taller para niñoz fue el primer artizta ke vi

                                     x2
---------------------------------------|----
-10-12-14-17-15-12-10-9-10-10-10-12-14-|-12-
---------------------------------------|----
---------------------------------------|----
---------------------------------------|----
---------------------------------------|----

---------------------------------------|
--------------------------9-10-9-10-12-|
----------8----8-11-10-11--------------|
-9-8-9-11---11-------------------------|
---------------------------------------|
---------------------------------------|

--------------------------------------------|
18-16-14----16-14-12---14-12-10---12-10-8---|
---------16----------14---------12--------10|
--------------------------------------------|
--------------------------------------------|
--------------------------------------------|

El material contenido en esta página es para exclusivo uso privado y con propósito meramente educativo, se prohibe su reproducción y uso con fines comerciales