Looney tunes

Tabs, letra y acordes de 'Looney tunes' por Música de TV

Versiones disponibles: Tablatura para guitarra (TAB) - Notas para armónica

Esta es la tonada que suena al principio de los capítulos de Looney Tunes.


e|-12--10--8--10--12--12--12--8--10--10--10--10~-|
B|-----------------------------------------------|
G|-----------------------------------------------|
D|-----------------------------------------------|
A|-----------------------------------------------|
E|-----------------------------------------------|

e|-10--8--7--8--10--10--10--7--8--8--8--8~-|
B|-----------------------------------------|
G|-----------------------------------------|
D|-----------------------------------------|
A|-----------------------------------------|
E|-----------------------------------------|

e|--------------------------------------|
B|--------------------------------------|
G|--0h2---0h2---0/7~---0h2---0h2---0/9~-|
D|--------------------------------------|
A|--------------------------------------|
E|--------------------------------------|

e|-0-----------0--0--0---------------------|
B|----3--1--3-----------1--3--3--3--3~-----|
G|-----------------------------------------|
D|-----------------------------------------|
A|-----------------------------------------|
E|-----------------------------------------|

e|-----------------------------------------------|
B|-----------------------------------------------|
G|-2--2--2----7---9----12----5-------------------|
D|-0--0--0----5---7----10----3-------------------|
A|-----------------------------------------------|
E|-----------------------------------------------|


Creo que antes mira TV por que daban cosas buenas

:D
Versión 2 - Looney tunes (Notas para armónica)
5 (4) 4 (4) 5 (4) 5 4 (4) (4) (4) (4)

(4) 4 (3) 4 (4) 4 (4) (3) 4 4 4 4

3 (3) 3 (3) 3 (4) (4)

3 (3) 3 (3) 3 5 5

5 (4) 4 (4) 5 (4) 5 4 (4) (4) (4) (4)

(4) 4 4 (4) 5 6

El material contenido en esta página es para exclusivo uso privado y con propósito meramente educativo, se prohibe su reproducción y uso con fines comerciales