Las mil y una noches (Binbir Gece)

Acordes de la canción 'Las mil y una noches (Binbir Gece)' de Música de TV

e |-------------------------------------|
B |-------------------------------------|
G |-2-0---2-0-2p0---------2-0---2h3p2-0-|
D |-----3---------3-1-3-0-----3---------|
A |-------------------------------------|
E |-------------------------------------|

e |-------------------------------------|
B |-3-1---1-----------------------------|
G |-----3---2-3p2-0---0-2-0---------2---|
D |-----------------3-------3-1-3-0-----|
A |-------------------------------------|
E |-------------------------------------|


e |-------------------------------------|
B |-3-1---1-----------------------------|
G |-----3---2-3p2-0---0-2-0-------------|
D |-----------------3-------3-1-3-0-----|
A |-------------------------------------|
E |-------------------------------------|


e |-------------------------------------|
B |-------------------------------------|
G |---0-0---0-2---3-0-0---0-2-----------|
D |-0-----3-----0-------3---------------|
A |-------------------------------------|
E |-------------------------------------|


e |-------------------------------------|
B |-------------------------------------|
G |-3-0-0---0-2-------0---------0-2-----|
D |-------3-----3-1-3---1-0h1-3---------|
A |-------------------------------------|
E |-------------------------------------|


e |-------------------------------------|
B |-------------------------------------|
G |-3-0-0---0-2-------0-----------------|
D |-------3-----3-1-3---1-5-4-5p4-0-----|
A |-------------------------------------|
E |-------------------------------------|


e |-------------------------------------|
B |-3-1---1-----------------------------|
G |-----3---2-3p2-0---0-2-0---------2---|
D |-----------------3-------3-1-3-0-----|
A |-------------------------------------|
E |-------------------------------------|


e |-------------------------------------|
B |-3-1---1-----------------------------|
G |-----3---2-3p2-0---0-2-0-------------|
D |-----------------3-------3-1-3-0-----|
A |-------------------------------------|
E |-------------------------------------|

El material contenido en esta página es para exclusivo uso privado y con propósito meramente educativo, se prohibe su reproducción y uso con fines comerciales