La pantera rosa

Acordes de la canción 'La pantera rosa' de Música de TV

Versiones de esta canción: Tablatura para guitarra (TAB) - Tablatura para bajo (bass tab) - Tablatura para guitarra (TAB) - Tablatura para guitarra (TAB)

Saludos a todos mis amigos de 601 del COBAEM Ario de Rosales.

Esto es cuando presentan el capitulo, va mas o menos asi.

e:------------------------------------------
B:------------------------------------------
G:------------------------------------------
D:---2p0-2-4------2p0-2-4------2p0-2-4------
A:-3----------0h3----------0h3---------0h3--
E:------------------------------------------

Aqui empieza la pantera rosa

e:-----------------------------
B:-----------------------------
G:-----------------------------
D:-6/7-8/9-----9/8-7/5---------
A:-4/5-6/7-----7/6-5/3---------
E:-----------------------------

e:---------------------------------------------------
B:---------------------------------------------------
G:-----------------------5p4-----4p3------3h4p5---0--
D:-6/7-8/9--4/5------4/5-----3-5----------------5----
A:-4/5-6/7------6/7----------------------------------
E:---------------------------------------------------

e:---------------------------------------------------
B:-------------------------------5p4-----------------
G:-----------------------5p4-------------------------
D:-6/7-8/9--4/5------4/5-----3-5---------------------
A:-4/5-6/7------6/7----------------------------------
E:---------------------------------------------------

e:---------------------------------------------------
B:---------------------------------------------------
G:-----------------------5p4-----4p3------3h4p5---0--
D:-6/7-8/9--4/5------4/5-----3-5----------------5----
A:-4/5-6/7------6/7----------------------------------
E:---------------------------------------------------

e:----------------------------------------------------------------
B:----------------------------------------------------------------
G:-----------7/9--------------------------------------------------
D::-6/7-8/9------9-7----------------------------------------------
A::-4/5-6/7----------9-7-9-9-9-9-9-7-4-4/7--9-7-4-4/7--9-7-4-4/7--
E:----------------------------------------------------------------

Y asi es como terminan los capitulos

e:-7-5-3-0-3-5---3-----
B:---------------------
G:---------------------
D:---------------------
A:---------------------
E:---------------------

Bueno, esto es lo que logre sacar yo creo que es algo diferente
a las demas. Espero que les guste. CALIFIQUENLA xfa....
Versión 2 - La pantera rosa (Tablatura para bajo (bass tab))
Intro

G|---------------------|
D|---------------------|
A|-4h5-6h7-------------|
E|-----------7--0------|x4

primera parte

G|----------------------5-4-----------------|
D|---------4-5------4-5-------5-9-8-5-------|
A|-4-5-6-7-----6-7----------7---------7-5-7-|
E|------------------------------------------|

segunda parte

G|---------------------5-4-----7-5--------|
D|---------4-5-----4-5-------5------------|
A|-4-5-6-7-----6-7---------7--------------|
E|----------------------------------------|

se repite la primera parte



Final 1
G|---------9-7--------------------------------------|
D|-------------9-7-5-7h8-7h8-7h8-5------------------|
A|-4-5-6-7-------------------------7-5-7------------|
E|---------------------------------------7-0--------|

  2ª parte de toda la cancion

G|-------------11-11-9------9--------------------------------------|
D|--6-7-9-11-9---------11-9---8-10-7-9-5-7-9-8-10-6-8-(4(7 veces))-|
A|-----------------------------------------------------------------|
E|-----------------------------------------------------------------|

no me dio tiempo de sacar lo demas, luego se los paso
Versión 3 - La pantera rosa (Tablatura para guitarra (TAB))
E)-0--1--2--3-------------------------
A)-----------------------0--1---------
D)------------------------------------
G)-------------3----------------3-----
B)---------------3----------------3---
E)-----------------3----------------3-


E)--0--3-------------1-3---------2-1-0-2-2
A)-------0--1---5-4------4-3--0-----------
D)----------------------------------------
G)----------------------------------------
B)----------------------------------------
E)----------------------------------------

E)----------------------------------------------------
A)----------------------------------------------------
D)----------------------------------------------3--5-5
G)------------2--0----3/5---3/5---3/5----3-3-0--------
B)------3--1------------------------------------------
E)-3--1-----------------------------------------------

G)----3-
B)-3---3-
E)------3-
Versión 4 - La pantera rosa (Tablatura para guitarra (TAB))
1.--------------------------------------
2.--------------------------------------
3.--------------------------------------
4.----0-1-2-----------------------------
5.--4-------2---------------------------
6.------------0-------------------------(x3)

1--------------------------------------
2--------------------------------------
3---------------------------5-4--------
4----0-1-2----4-5---1-2-4-5-----2-5----
5--4-----------------------------------
6-----------0-----0--------------------

1--------------------------------------
2--------------------------------------
3-4-3-2-0------------------------------
4---------0-2-2------------------------
5--------------------------------------
6--------------------------------------

Hasta ahi me la se Saludos :D.

El material contenido en esta página es para exclusivo uso privado y con propósito meramente educativo, se prohibe su reproducción y uso con fines comerciales