Kimi sae ireba - love hina ending

Acordes de la canción 'Kimi sae ireba - love hina ending' de Música de TV

intro: Am

(Mini Solo)
E|-----------------------------7---|
B|------------5---------5----------|
G|--------5--------5---------------|
D|---7-----------------------------|
A|---------------------------------|
E|---------------------------------|

Am      E        C    D
Si estuvieras aquí conmigo
G   F        Em   F          E  E7
Sería muy feliz, seríamos felices
Am      E        C    D
Si estuvieras, feliz conmigo
G   F          Em   F         E    E7  Am
Haríamos todo bien, nada nos fallaría no

         F    G  B7          Em
Y si me dices, que nada pasaría,
Am                 Dm
muy triste me pondré,
                    G
por saber que al final
                  C    E7
tu no sientes lo mismo

           F  G  B7          Em
Me deprimiría, no sé lo que haría,
Am           Dm        G          C    Bm E
Ni cómo superar ese dolor de desamor

(SOLO)
Am E C D G F Em F E E7
Am E C D G F Em F E E7 Am

            F   G    B7            Em
Y si tú me dices que tú también me amas,
Am            Dm              G                  C  E7
entonces estaré siempre yo feliz, nada me detendría
                 F    G  B7            Em   Am
A hacer lo que quiero, hacer lo que deseo,
                Dm            G            C      C# y C
 Y con mucho valor, aquí estaré, esperándote aquí

         F   G    B7            Em
Y si me dices que tú también me amas,
Am            Dm              G                  C  E7
entonces estaré siempre yo feliz, nada me detendría
                 F    G  B7            Em    Am
A hacer lo que quiero, hacer lo que deseo hacer
                Dm              G                C
Y entonces con valor, aquí estaré, esperando por ti

 F              C
LA LAlalalalala   LA LAlalalalala
F               C    E
La LAlalalalala

 F              C
LA LAlalalalala   LA LAlalalalala
F               C    E
La LAlalalalala

 F    C F C E  F
Laaaa

C#:
E|--0----------------|            E|---0---------------|
B|-------2-----------|            B|---2---------------|
G|--0----------------|            G|---0---------------|
D|------------3------|            D|---3---------------|
A|----------------4--|            A|---4---------------|
E|----------------4--|            E|---4---------------|

Cualquier duda o aclaración en mi twitter:
@TheVictorLennon
Facebook.com/victormccaballero
o en los comentarios
pero pará más rápido en mis fb y tw

El material contenido en esta página es para exclusivo uso privado y con propósito meramente educativo, se prohibe su reproducción y uso con fines comerciales