Inspector gadget

Acordes de la canción 'Inspector gadget' de Música de TV

Versiones de esta canción: Tablatura para bajo (bass tab) - Tablatura para guitarra (TAB)

G-------------------------
D-------0-2---1---0-------
A-0-2-3-----3---2---3-----
E-------------------------

G-----------2-1-----------
D-------0-2---------------
A-0-2-3-------------------
E-------------------------

G-------------------------
D-------0-2---1---0-------
A-0-2-3-----3---2---3-----
E-------------------------

G--2-1-0--------2---------
D--------4-3--2-----------
A-------------------------
E-------------------------

G-------------------------
D-------0-2---1---0-------
A-0-2-3-----3---2---3-----
E-------------------------

G-----------2-1-----------
D-------0-2---------------
A-0-2-3-------------------
E-------------------------

G-------------------------
D-------0-2---1---0-------
A-0-2-3-----3---2---3-----
E-------------------------

G-------------------------
D-------------------------
A-0--------------0--------
E---4-3-2-1----0----------
Versión 2 - Inspector gadget (Tablatura para guitarra (TAB))
~-vibrato
b-bend
r-release
(x)-bend to or from

Opening bit...

|-------------------|---------------|
|-------------------|---------------|
|-------------------|---------------|
|-------------------|----------7-6~-|
|------5-7---6---5--|------5-7------|
|5-7-8-----8---8---8|5-7-8----------|


|-------------------|------------------|
|-------------------|------------------|
|-------------------|------------9-14--|
|-------------------|------------9-14--|
|------5-7---6---5--|------------7-12--|
|5-7-8-----8---8---8|5-4-3-2-1~--------|


'Go Gadget go' bit....

|------------x12-12|----------------------|
|------------x12-12|----------------------|
|12~-9-10-12-------|12-12-11-9-7-9-9-7-5-4|
|------------------|----------------------|
|------------------|----------------------|
|------------------|----------------------|

|------------x12-12|----------------------|
|------------x12-12|----------------------|
|12~-9-10-12-------|12-12-11-9-7-9-9-7-5-4|
|------------------|-------------7-7-7-5-4|
|------------------|-------------7-7-5-3-2|
|------------------|----------------------|

|-------------------|---------------|
|-------------------|---------------|
|-------------------|---------------|
|-------------------|----------7-6~-|
|------5-7---6---5--|------5-7------|
|5-7-8-----8---8---8|5-7-8----------|


|-------------------|---------------------------------|
|-------------------|-------------------------12b(15)r|
|-------------------|-----------------3~2~------------|
|-------------------|------------3~2~-----------------|
|------5-7---6---5--|------3~-2~----------------------|
|5-7-8-----8---8---8|3~-2~----------------------------|

|------------------|
|------------------|
|------------9-14--|
|------------9-14--|
|------------7-12--|
|5-4-3-2-1~--------|

El material contenido en esta página es para exclusivo uso privado y con propósito meramente educativo, se prohibe su reproducción y uso con fines comerciales