Güiri Güiri

Acordes de la canción 'Güiri Güiri' de Música de TV

se repite 2 veces
--------------------------------------º
--------------------------------------º
--------------------------------------º
--------------------------------------º
--------------7-6-5-------------------º
-0-5-5-7^8--8---------8-7-6-5-7-0-----º
una sola vez

-----------------------------------------------------------------º
-----------------------------------------------------------------º
-----------------------------------------------------------------º
-----------------------------------------------------------------º
------7-6-6-6-7-9-9-9--88--77-8--------7-6-6-6-9-9-9-8-8-7-7-6-5-º
-5-8--------------------------------5-8--------------------------º

El material contenido en esta página es para exclusivo uso privado y con propósito meramente educativo, se prohibe su reproducción y uso con fines comerciales