Futurama

Acordes de la canción 'Futurama' de Música de TV

Futurama 

 e------------------------------------------------------------------------------
 B---------------------------------------------------------------0--0-----------
 G-----2-2--------------2-2----------------2-1---------------2-1----------------
 D-2-2-----0-0-2-2--2-2-----0-0-5-5-4-2--2-----0--0-4-2-2--2----------5-5-4-4---
 A------------------------------------------------------------------------------
 E------------------------------------------------------------------------------
 
 e------7-7-------5-5-|------7-7-------5-5-4---
 B-7-7-------5-5------|-7-7-------5-5----------
 G--------------------|------------------------
 D--------------------|------------------------
 A--------------------|------------------------
 E--------------------|------------------------


 e------7-6-------5-4-|------7-6----9-9-5-5-4-4
 B-7-7-------5-5------|-7-7--------------------
 G--------------------|------------------------
 D--------------------|------------------------
 A--------------------|------------------------
 E--------------------|------------------------

El material contenido en esta página es para exclusivo uso privado y con propósito meramente educativo, se prohibe su reproducción y uso con fines comerciales