Full metal Alchemist - brother

Acordes de la canción 'Full metal Alchemist - brother' de Música de TV

e----------------------------------------------------8---5---3---5---
B----6--5--6---8----10--6--5---3-------6---5---6---8-----------------
G--7-------------------------------7---------------------------------
D--------------------------------------------------------------------
A--------------------------------------------------------------------


e--------------------------------------------------------------------
B------6--5--6---8----10--6--5---3----------3----1---3---5---6--5--3-
G---7----------------------------------------------------------------
D--------------------------------------------------------------------
A--------------------------------------------------------------------


e-----5--3-5--3------5---8--3------5--3-5---3------------------------
B------------------3----------------------------3---5-6---8--6-5-----
G--------------------------------------------------------------------
D--------------------------------------------------------------------
A--------------------------------------------------------------------


e-----5--3-5--3------5---8--3------5--3-5---7---5--3--5--------------
B------------------3-------------------------------------------------
G--------------------------------------------------------------------
D--------------------------------------------------------------------
A--------------------------------------------------------------------


e----5---10-10--8---3--5---5--10--12--10--8---3--5---5--3--5--3—0----
B------------------------------------------------------------------3-
G--------------------------------------------------------------------
D--------------------------------------------------------------------
A--------------------------------------------------------------------

AUTORES:A.A

El material contenido en esta página es para exclusivo uso privado y con propósito meramente educativo, se prohibe su reproducción y uso con fines comerciales