Fairy tail tema lento

Acordes de la canción 'Fairy tail tema lento' de Música de TV

Les traigo esta genial melodía de la serie (anime) Fairy Tail.
Espero que las disfruten :D

Tono: D
Velocidad: Lenta

E|--0---7---7---5-----3--2--0--2--0---7---10---7
B|-----------------3----------------------------
G|----------------------------------------------
D|--------------------0-------------------------
A|--------------------------3-------------10----
E|--0-------3---------------------0-------------

  ----5-----2h3--2--0--0----2~3-2-------0---0--7--|
  -8-----3----------------0------3----------------|
  ---------------------0-----------2--------0-----|
  ----0---------------------0--------0----2-------|
  ------------------3-----------------------------|
  --------------------------------------0---------|


E|--7---5-----3---3--2---0--0--2-----0-----7--10-
B|---------3-----------------------3-------------
G|-----------------------------------------------
D|------------0------0---------0-----------------
A|-----------------------3--------------2-----10-
E|--3--------------------------------0-----------

  ----7----5----3--2--0---0-2-----||
  ------8-----3----------------3--||
  --------------------------------||
  -9-------0----------------0-----||
  --------------------3-----------||
  --------------------------------||

Velocidad: Media


E|-0---0-2--2h3-2-0----------7--5--3--3h5--7-5h7p5-
B|------------------3-----3------------------------
G|-----0----------------0--------------------------
D|---2----------------0---------------0------0-----
A|-------------------------------------------------
E|-0----------------3------------------------------

  -3-2--0---0-0-2~3-2-------0---0-2-2h3-2-0---------7|
  ----------0---------3---------------------3-----3--|
  --------0-------------2-------0---------------0----|
  --------------0---------0---2---------------0------|
  ------3--------------------------------------------|
  --------------------------0---------------3--------|

E|-5--3--3h5--7-5h7p5--3-2--0---0-3-2--------0---0-2-2h3-2-0------7h10--75--||
B|------------------------------0------3---------------------3-0-------------||
G|----------------------------0----------2-------0---------------------------||
D|-------0------0-------------------0----------2-----------------------------||
A|--------------------------3------------------------------------------------||
E|-------------------------------------------0---------------3---------------||



E|-5--3--3h5--7-5h7p5--3-2--0---0-0-2~3-2-------0---0-2-2h3-2-0-----
B|------------------------------0---------3---------------------3-0-
G|----------------------------0-------------2-------0---------------
D|-------0------0-------------------0---------0---2-----------------
A|--------------------------3---------------------------------------
E|----------------------------------------------0---------------3---

 -7h10--75--||
 ------------||
 ------------|| X2
 ------------||
 ------------||
 ------------||

El material contenido en esta página es para exclusivo uso privado y con propósito meramente educativo, se prohibe su reproducción y uso con fines comerciales