Elfen lied - lilium

Acordes de la canción 'Elfen lied - lilium' de Música de TV

Versiones de esta canción: Tablatura para guitarra (TAB) - Tablatura para guitarra (TAB) - Tablatura para guitarra (TAB)

1ra parte:

e :--9---------------|--9----------7----2---------|
B :7---9-----10-10---|7---9-----10---10-----3-----|
G :--------6---------|--------6-----------2---2-4-|
D :------6---------7-|------6-----------4-------0-|
A :----8--------9----|----8--------9--------------|
E :------------------|----------------------------|

e :4-------------------|2-------0-2-----4-5-7-5------5-----4-|
B :--5---5-------------|--3-2-3--------------------7-----6---|
G :----7-----6-------3-|-------------------------6-----6-----|
D :--------6---6---4---|-------------------------------------|
A :------4-------------|------2-----2-3-------4--------------|
E :--------------2-----|-------------------------------------|

e :--9---------------|--9----------7----2---------|
B :7---9-----10-10---|7---9-----10---10-----3-----|
G :--------6---------|--------6-----------2---2-4-|
D :------6---------7-|------6-----------4-------0-|
A :----8--------9----|----8--------9--------------|
E :------------------|----------------------------|

e :4-------------------|2-------7--------------------2-|
B :--5---5-------------|--3-2-----10-9-7-----------2---|
G :----7-----6-------3-|------7----------10-8-10-2-----|
D :--------6---6---4---|-------------------------------|
A :------4-------------|-------------------------------|
E :--------------2-----|------7---8----9----9----2-----|

2da parte:

e :6-7-9-10------------------10-----9-----12--------------9-------|
B :-----------7-10-----9--------9-------9------9-10---------10----|
G :---------7------7-------7------9---9------9---------11------11-|
D :4-6-8-9-----------9---9--------------------------11------------|
A :--------------------7------------0------------9----------------|
E :---------------------------------------------------------------|

e :8-----5-----4-----------5-----5-----5-----7-----4-|
B :--4-----4-----4---7---------7---7-----7-------6---|
G :----5-----5-----5---5-----6-------6-----6---6-----|
D :6---------------------6---------------------------|
A :----------------------4-4-------------------------|
E :--------------------------------------------------|

e :--9---------------|--9----------7----2---------|
B :7---9-----10-10---|7---9-----10---10-----3-----|
G :--------6---------|--------6-----------2---2-4-|
D :------6---------7-|------6-----------4-------0-|
A :----8--------9----|----8--------9--------------|
E :------------------|----------------------------|

e :4-------------------|2-------7--------------------2-|------------|
B :--5---5-------------|--3-2-----10-9-7-----------2---|2-3-------2-|
G :----7-----6-------3-|------7----------10-8-10-2-----|2-4-4---2---|
D :--------6---6---4---|-------------------------------|----4-------|
A :------4-------------|-------------------------------|------------|
E :--------------2-----|------7---8----9----9----2-----|------2-----|

3ra parte:

e :--------------------------|----------------|
B :--0-2-----3-2-0-----------|--0-2---4---2---|
G :2---2-2-4-4-----2-------1-|2-4-2-2---4-----|
D :----2-----------------2---|----2-----4---4-|
A :------0-------------2-----|----0-0---2---4-|
E :----------4---2---0-------|2-4-----------2-|

e :5-4-0---2-------------------------|------------------|
B :----2-----0-2---0-3-2-0-2---------|----2-5-4-------2-|
G :--2---2-----2-2---4-------2-1-2---|1-2-2-4-4-4---2---|
D :------------2-------------------4-|----2-------2-----|
A :------------0-0-----------------5-|--0-0---2---------|
E :------------------4---2---2-0-----|------------2-----|

e :----------2-4-5-0---------2-2-----0-5---4-|
B :----------3-------3-2-4---2---5-3-------5-|
G :----------2---------2-4-4-2-------------4-|
D :4-2-------0-0---0---2-----0---0---0-----6-|
A :----4-2-------------0-2-------------------|
E :--------4---------4-----------------2-0---|

e :0------7-9--12-11----9-------0-2-----------|
B :--7-10---10----12-12-10-10-9-----2---------|
G :--7------9-----------11------------4---2---|
D :--7------------------9---------------6-4---|
A :---------9-----11--------------------------|
E :--7----7---------------------------------2-|

4ta parte:

e :6-7-9-10------------------10-----9-----12--------------9-------|
B :-----------7-10-----9--------9-------9------9-10---------10----|
G :---------7------7-------7------9---9------9---------11------11-|
D :4-6-8-9-----------9---9--------------------------11------------|
A :--------------------7------------0------------9----------------|
E :---------------------------------------------------------------|

e :8-----5-----4-----------5-----5-----5-----7-----4-|
B :--4-----4-----4---7---------7---7-----7-------6---|
G :----5-----5-----5---5-----6-------6-----6---6-----|
D :6---------------------6---------------------------|
A :----------------------4-4-------------------------|
E :--------------------------------------------------|

e :--9---------------|--9----------7----2---------|
B :7---9-----10-10---|7---9-----10---10-----3-----|
G :--------6---------|--------6-----------2---2-4-|
D :------6---------7-|------6-----------4-------0-|
A :----8--------9----|----8--------9--------------|
E :------------------|----------------------------|

e :4-------------------|2-------7--------------------2-|------------|
B :--5---5-------------|--3-2-----10-9-7-----------2---|2-3-------2-|
G :----7-----6-------3-|------7----------10-8-10-2-----|2-4-4---2---|
D :--------6---6---4---|-------------------------------|----4-------|
A :------4-------------|-------------------------------|------------|
E :--------------2-----|------7---8----9----9----2-----|------2-----|

COMBATE.
Versión 2 - Elfen lied - lilium (Tablatura para guitarra (TAB))
aca les dejo un vercion mas simple de lilium el opening de elfen lied
esta vercion q les traigo es muy conocida, eto , yo la e sub-dividido
en 5 partes pero creo q me falta una q es la q esta entre la parte 4 y 5
    bueno yo la e divido xq creo q se aprende mas facilmente solo tienen
q seguir el orden despues.

Part 1:
E---9--------------9------------------
B-7---9--10-10---7---9--10-12-10-7----
G-------------------------------------

Part 2:
E------------------------------------------
B-9--------7---------------9-10-12-10--10-9
G---9-7-9-----7-6-7-9-11-------------------

Part 3:
E---------------------7-------------------
B-9---------7-----------10-9--------------
G---9-7-9------7-6-7---------11-10-8-10-11

Part 4:
E----7-9-10--------10-9-12-------10-9--
B-10-------10-9--------------10--------
G--------------------------------------

Part 5:
E-------------------------
B-12-10-9-7-10-10--12-9---
G-------------------------

orden:
1-2-1-3-4-5-1-3

al aprenderce parte por parte sigan el orden y ahi esta la parte del
opening unicamente no la cancion entera, no la e qrido subir xq sino
se van a confundir mucho
bueno chao, ojala les sirva
Versión 3 - Elfen lied - lilium (Tablatura para guitarra (TAB))
eaaaaaaa!!! aki les pongo algo de cansiones de anime por ke veo ke
esta cosa no ay nada de eso, asi para ke se aga famosa 0344 pues
yo soii kira =)y esto es algo de elfen lied disfrutenlo...

e-----9-----------------------------9-----------------------
B--7-----9-----------9---10------7------9----------9--10-12-
G--------------10-----------------------------10------------
D------------11-----------------------------11--------------
A--------8---------------9--------------8-------------9-----
E-----------------------------------------------------------

e---------------------4------------------1---------0--2-----
B--10---7--------0------5-3-5----2---------3-2-3---------0-1
G------------7-----------------1---1-3----------------------
D-------0--7---7--------------------------------------------
A---------------------------4------------------2------------
E-----------------------------------------------------------

e--4--5--7--5----------4------------------------------------
B-----------------------------------------------------------
G----------------6------------------------------------------
D--------------4---4----------------------------------------
A-----------4----------4------------------------------------
E-----------------------------------------------------------

e-----9-----------------------------9-----------------------
B--7-----9-----------9---10------7------9----------9--10-12-
G--------------10-----------------------------10------------
D------------11-----------------------------11--------------
A--------8---------------9--------------8-------------9-----
E-----------------------------------------------------------

e---------------------4------------------1-----------7---5--
B--10---7--------0------5-3-5----2---------3-2-3------------
G------------7-----------------1---1-3----------------------
D-------0--7---7--------------------------------------------
A---------------------------4------------------2---------4--
E-----------------------------------------------------------


e--4--2----------------------6--7--9---10-----------10--9---
B--------6---4---6---7-------7--9--11--12---10--9-----------
G-----------------------------------------------9-----------
D--------------------4-----------------0--------------------
A-----4------4------------------------------------------0---
E-----------------------------------------------0-----------

e--12-----9--8---5--4----------------6--7--9---10-----------
B-----10----------------6--3--2------7--9--11--12---10---9--
G--------------------------------------------------------9--
D------------0---------------------------------0------------
A-----9-------------4---------4-----------------------------
E--------------------------------------------------------0--


e--10--9--12-----9--8---5--4--2--5----------7-----4---------
B------------10-----------------------------------2---------
G--------------------------------------6--------------------
D------------------------------------4----------------------
A------0-----9------7------------4--------------------------
E-----------------------------------------------------------

e-----9-----------------------------9-----------------------
B--7-----9-----------9---10------7------9----------9--10-12-
G--------------10-----------------------------10------------
D------------11-----------------------------11--------------
A--------8---------------9--------------8-------------9-----
E-----------------------------------------------------------

e---------------------4------------------1-----------7---5--
B--10---7--------0------5-3-5----2---------3-2-3------------
G------------7-----------------1---1-3----------------------
D-------0--7---7--------------------------------------------
A---------------------------4------------------2---------4--
E-----------------------------------------------------------

e--4--2----------------------------------------------------
B--------6---4---6---7-------------------------------------
G-------------------------------Lilim……--------------------
D--------------------4-------------------------------------
A-----4------4---------------------------------------------
E----------------------------------------------------------

jajaja espero ke le aigan gustado y si les sale mejor a otro pues
subalo nonononono ora pues mandare saludos xD a:
el charly eaaaaaaaa =) al mario =jaja ea ea!! a vick, chesko, gina,
daniela, mi hija dani ^^, kananii, el juan jajaja ea ea!!! la nutria,
margarita ayala, diva, jakelin, y a todos pues... y si se me olvida
uno no se sientan e =( bueno pues chidote

El material contenido en esta página es para exclusivo uso privado y con propósito meramente educativo, se prohibe su reproducción y uso con fines comerciales