El pájaro loco

Acordes de la canción 'El pájaro loco' de Música de TV

Versiones de esta canción: Tablatura para guitarra (TAB) - Tablatura para guitarra (TAB)

1e---------------------------------------
2b-------8-5---------85--8-6-5-8-6-5-6-8-
3g---------------------------------------
4D-5-5-5-------5-5-5---------------------
5A---------------------------------------
6E---------------------------------------


1e------5-5-----5-----5------------------
2b-8-8------6-6---8-6---8-5--------------
3g---------------------------------------
4D---------------------------------------
5A---------------------------------------
6E---------------------------------------


1e-----------------------------------------
2b---5-6-8-6-5--7---------8--5--------8--5-
3g-7------------7--------------------------
4D--------------7---5-5-5-------5-5-5------
5A--------------5--------------------------
6E--------------5--------------------------

Otra vez ando aqui transcribiendo cosas nuevas y viejas chidas
ruben_lira_2007@hotmail.com
lira211205@yahoo.com.es
lira211205@yahoo.musica.mx
espero que les guste
Versión 2 - El pájaro loco (Tablatura para guitarra (TAB))
Hola, aca les traigo el tema del pajaro loco
Estoy seguro que esta bien.Cualquier cosa manden
mensaje a mi correo

E ----7--10-7--|---7--10-7-|-10-7-8-10-8-7---10--
B ---8---------|--8--------|---------------10----
G --7----------|-7---------|---------------------
D -0-----------|-----------|---------------------
A -------------|-----------|---------------------
E -------------|-----------|---------------------


E ----7--10-7--|---7--10-7-|-10-7-8-10-8-7---8---
B ---8---------|--8--------|---------------10----
G --7----------|-7---------|---------------------
D -0-----------|-----------|---------------------
A -------------|-----------|---------------------
E -------------|-----------|---------------------

El material contenido en esta página es para exclusivo uso privado y con propósito meramente educativo, se prohibe su reproducción y uso con fines comerciales