El Espectacular Hombre Araña

Acordes de la canción 'El Espectacular Hombre Araña' de Música de TV

Esta es la canción de la
nueva serie de mi súper héroe favorito el hombre araña



Suena bastante  bien ( según creo ) :



E-------------------------------
B-------------------------------
G-------------------------------
D------6-6-6-5-5-5-3-3-3-1-1-1--
A------------------------------3
E-------------------------------


E-----------------------------------
B-----------------------------------
G--------0----0-------0------0------
D------1--4-4------1---4-4----------
A----3-----------3------------------
E-----------------------------------
1 estrofa

E---------------------------------------------------
B---------------------------------------------------
G------0------0-------0-----0------0-----0-----0----0
D----1---4-4------1-----4-4-----1---4-4-----1---4-4-
A-3------------3-----------------------------------
E----------------------------4----------4---------

E----------------------------------------------------
B----------------------------------------------------
G-------0-----0-----0-------0-------0-----0-----0---0
D----1----4-4-----1---4--4-------1----4-4-----1--4-4
A--3------------3------------------------------------
E------------------------------1-------------1-----

E----------------------------------------------------
B----------------------------------------------------
G-------0-----0-------0-----0--------0-0-------------
D-----1---4-4-------1---4-4---------------3-3---------
A--3-------------3--------------3-3-------------1-2--
e----------------------------------------------------




E----------------------------------------------------------------
B----------------------------------------------------------------
G-----0-0---------5-----------5----------------0----0----0-----0-
D---------33--------5-4-1------5-4-1--------1----4-4---1--4-4----
A-3-3--------1-2-----------3----------3---3-----------3----------3
e-----------------------------------------------------------------

ESPERO QUE LES GUSTE

El material contenido en esta página es para exclusivo uso privado y con propósito meramente educativo, se prohibe su reproducción y uso con fines comerciales