Dragon ball z- ocarina tapión

Acordes de la canción 'Dragon ball z- ocarina tapión' de Música de TV

e-------8-6-4-6------------------------8-6-4-6-------------------------
B-----6---------6-8-9--9-11-9-8------6---------6-8-9--9-8-6-4-6--------
G-5-5----------------------------5-5-----------------------------------
D----------------------------------------------------------------------
A----------------------------------------------------------------------
E----------------------------------------------------------------------

e----------------8-6-4-6-----4-6--------------------------------------
B-----6------------------6-4------6-8-9-----------9-9-11-9-8--------8-
G-5-5---5-------------------------------10----10-------------9----9---
D---------8-6-8----------------------------10------------------10-----
A---------------------------------------------------------------------
E---------------------------------------------------------------------

e---------------8-6-4-6-----4-6-------------------------------------
B-----6-----------------6-8-----6-8-9-------9-8-6-4-6-------6-------
G-5-5---5-----------------------------10--------------5---5---------
D---------8-6-8--------------------------10-------------6-----------
A-------------------------------------------------------------------
E-------------------------------------------------------------------

Espero que les sirva !!!! :D
Aguante DB, DBZ Y DBGT !!!! Sabeeeee !!!!

El material contenido en esta página es para exclusivo uso privado y con propósito meramente educativo, se prohibe su reproducción y uso con fines comerciales