Dragon Ball Z kai - dragon soul

Acordes de la canción 'Dragon Ball Z kai - dragon soul' de Música de TV

Versiones de esta canción: Tablatura para guitarra (TAB) - Letra y acordes

Vamos simpre afortunados,Vamos

          orgullosos Vamos.      El paraiso hallar solo debemos ir por libertad
E|-3-5-3-5-1-0---0-1-0-1-0-------|-----1-0-3-----0-1---0-1---|-3-3-5-----|
B|-------------3-----------3-1-0-|---1-------1-3-----3-----3-|-------1-1-|
G|-------------------------------|-2-------------------------|-----------|
D|-------------------------------|---------------------------|-----------|
A|-------------------------------|---------------------------|-----------|
E|-------------------------------|---------------------------|-----------|

Desafiare los misterios que vendran(Desafiare).Peligro habra,
                                                convatire sin temor
E|---3---------0-1-1-0-----1-0-----|---3---------0-1-1-0-----|
B|-1---3-1-1-0---------3-1-----3-1-|-1---3-1-1-3---------3-1-|
G|---------------------------------|-------------------------|
D|---------------------------------|-------------------------|
A|---------------------------------|-------------------------|
E|---------------------------------|-------------------------|


Mi Fuerza sera, el amor vivire asi (Vivire asi).Coraje sin fin conmigo
                                                estas nadie nos vencera
E|---3---------0-1-1-0-----1-0-----|---3---------0-1-1-0-----1-0-------3|
B|-1---3-1-1-3---------3-1-----3-1-|-1---3-1-1-3---------3-1-----3-1-3--|
G|---------------------------------|------------------------------------|
D|---------------------------------|------------------------------------|
A|---------------------------------|------------------------------------|
E|---------------------------------|------------------------------------|

Pelearemos por amor y gloria,viviremos para contar
                                     la historia,ya no habra nada imposible,
                                                              nadie morira
E|-------0-0---------3-|---0-3-3-1-1-0-----|-0-----1-1-0-0-----0---------|
B|---1-------3-3-1-3---|---------------3---|---1-----------3-1---3-1-1---|
G|-2---2---------------|-2---------------2-|-----2---------------------2-|
D|---------------------|-------------------|-----------------------------|
A|---------------------|-------------------|-----------------------------|
E|---------------------|-------------------|-----------------------------|


Seguiremos de pie
E|-------3-|
B|---1-3---|
G|-2-------|
D|---------|
A|---------|
E|---------|

Vamos simpre afortunados,Vamos
          orgullosos Vamos.      El paraiso hallar solo debemos ir por libertad
E|---3-5-3-5-1-0---0-1-0-1-0------|-----1-0-3-----0-1---0-1----3-3-------|
B|---------------3---------3-1-0--|---1-------1-3-----3-----3------------|
G|--------------------------------|-2------------------------------------|
D|--------------------------------|--------------------------------------|
A|--------------------------------|--------------------------------------|
E|--------------------------------|--------------------------------------|

Vamos simpre afortunados,Vamos
          orgullosos Vamos.    El paraiso hallar solo debemos ir por libertad
E|-3-5-3-5-1-0---0-1-0-1-0-----0-|-----1-0-3-----0-1---0-1---|-3-3-5-0----|
B|-------------3-----------3-1---|---1-------1-3-----3-----3-|---------1--|
G|-------------------------------|-2-------------------------|------------|
D|-------------------------------|---------------------------|------------|
A|-------------------------------|---------------------------|------------|
E|-------------------------------|---------------------------|------------|
Versión 2 - Dragon Ball Z kai - dragon soul (Letra y acordes)
C             G
Vamos siempre afortunados,
Am        Em
vamos lo encontraremos,
F     C
el paraíso hallar
Dm                G         G#     A#  C
y nuestro espíritu hay que liberar.


C               LA#
Desafiare los misterios que vendran [desafiare]
Am                  F        G
peligro habrá combatiré sin temor,
C                 LA#
mi fuerza será el amor vívire así [vívire]
Am                       F                G
coraje sin fin conmigo estas nadie nos vencera,


Am                      F
pelearemos por amor y gloria,
Am         F
viviremos para contar la historia
Am                  F
ya no habra nada imposible
Dm       F                G     F  G
nadie morira, seguiremos de pie


C             G
vamos siempre afortunados,
Am        Em
vamos orgullosos vamos
F        C
rumbo al viento
Dm                G
solo es cuestion de ir


C            G
vamos no nos detengamos
Am              Em
con la suerte a nuestro lado
F     C
el paraiso hallar
Dm          G         G#
solo debemos ir con libertad

A#    C
dragon soul

El material contenido en esta página es para exclusivo uso privado y con propósito meramente educativo, se prohibe su reproducción y uso con fines comerciales