Dragon ball gt - muerte de picoro

Acordes de la canción 'Dragon ball gt - muerte de picoro' de Música de TV

Escuchen bien la musica para que se oiga bien
al momento de hacer "5^7^5" este tipo de pisadas

e|-------7---5^7^5-----3--2---
B|----0-----------------------
G|----------------------------

e|--2--3--5---3^5^3---2---0---
B|----------------------------
G|----------------------------

e|--0--2--3---2^3^2---0-----2--
B|-----------------------3-----
G|-----------------------------

e|--0--------------------------
B|-----0-----------------------
G|--------0--------------0-----
D|-----------2-------2---------
A|----------------2------------

e|-------7---5^7^5--3^5^3---2--
B|----0------------------------
G|-----------------------------

e|--2--3--5---3^5^3--2^3^2--0-
B|-----------------------------
G|-----------------------------

e|--0--2--3---2^3^2--0^2^0-----2--
B|--------------------------3-----
G|--------------------------------

e|--0---------------------------
B|-----0---------------------0--
G|--------0--------------0------
D|-----------2-------2----------
A|----------------2-------------

El material contenido en esta página es para exclusivo uso privado y con propósito meramente educativo, se prohibe su reproducción y uso con fines comerciales