Dragon Ball GT - dan dan kokoro hikareteku

Acordes de la canción 'Dragon Ball GT - dan dan kokoro hikareteku' de Música de TV

Versiones de esta canción: Tablatura para guitarra (TAB) - Tablatura para guitarra (TAB) - Notas para armónica - Tablatura para guitarra (TAB) - Notas para armónica - Letra y acordes - Letra y acordes

DAN DAN kokoro hikareteku


--3-3-----3-5-3------------------------------------|
------5-6-------6-5----5-5-----5-6-5---------------|
---------------------7-----5-7------7-5-4-2--------|
---------------------------------------------------|
---------------------------------------------------|
---------------------------------------------------|

-----5-3-------------------------------------------|
-----------3-5-6-5-3---5--1-0-1--------------------|
-2-5-----5-----------5-----------------------------|
---------------------------------------------------|
---------------------------------------------------|
---------------------------------------------------|

parte del medio
---8-8-8-8-8-6-4-6-8-6--6-6-6-6-6-4-3-4-6-4--------|
-1-------------------------------------------------|
---------------------------------------------------|
---------------------------------------------------|
---------------------------------------------------|
---------------------------------------------------|

-4-4-4-3---3---------3--3-4-6-8--8-8-8-8-8-6-4-6-8-6-|
---------6---6-6-4-6---------------------------------|
-----------------------------------------------------|
-----------------------------------------------------|
-----------------------------------------------------|
-----------------------------------------------------|

-6-6-8-10-10-11-6-4-3-4--4-6-4-3-3--3-15-13-12-----|
---------------------------------------------------|
---------------------------------------------------|
---------------------------------------------------|
---------------------------------------------------|
---------------------------------------------------|

-12-13-12-11---4-6-8-8-8-8-8-8-6-10-8-6-4-3-3-3-3-3-3-|
------------------------------------------------------|
------------------------------------------------------|
------------------------------------------------------|
------------------------------------------------------|
------------------------------------------------------|

-3-4-6-8-10--10-8-10-10-10-10-8--10-12--12-12-10-12-14--|b
--------------------------------------------------------|
--------------------------------------------------------|
--------------------------------------------------------|
--------------------------------------------------------|
--------------------------------------------------------|

final

--3-3-----3-5-3------------------------------------|
------5-6-------6-5----5-5-----5-6-5---------------|
---------------------7-----5-7------7-5-4-2--------|
---------------------------------------------------|
---------------------------------------------------|
---------------------------------------------------|

-----5-3-------------------------------------------|
-----------3-5-6-5-3---5--5-6-3--------------------|
-2-5-----5-----------5-----------------------------|
---------------------------------------------------|
---------------------------------------------------|
---------------------------------------------------|

--3-3-----3-5-3------------------------------------|
------5-6-------6-5----5-5-----5-6-5---------------|
---------------------7-----5-7------7-5-4-2--------|
---------------------------------------------------|
---------------------------------------------------|
---------------------------------------------------|

-----5-3-------------------------------------------|
-----------3-5-6-5-3---3--1-0-1--------------------|
-2-5-----5-----------5-----------------------------|
---------------------------------------------------|
---------------------------------------------------|
---------------------------------------------------|

ai les dejo esta cancion
por que veo que las demas esta incompletas y erroneas
pero esta les aseguro que esta 95.5% bien
bueno
ai peticiones
envienlas
Versión 2 - Dragon Ball GT - dan dan kokoro hikareteku (Tablatura para guitarra (TAB))
Dragon ball GT – Toma mi mano (requinto)
aki esta rola la afinacion es la normal weno ai nox vermox

Primera Parte

1.-3-3----3-5-3------------------------------------5-3-------------------
2.-----5-6-------6-5--5-5-----5-6-5---------------------3-5-6-5-3---5-6-3
3.------------------ 7-----5-7-------7-5-4-2-2-5-------5-----------5-----
4.----------------------------------------------------------------------
5.-----------------------------------------------------------------------
6.-----------------------------------------------------------------------

Segunda Parte

1.-3-3----3-5-3------------------------------------5-3---------------------
2.-----5-6-------6-5--5-5-----5-6-5---------------------3-5-6-5-3---3-1-0-1
3.-------------------7----5-7-------7-5-4-2-2-5--------5----------5--------
4.-------------------------------------------------------------------------
5.-------------------------------------------------------------------------
6.-------------------------------------------------------------------------
Versión 3 - Dragon Ball GT - dan dan kokoro hikareteku (Notas para armónica)
esta cancion s para la mujer mas especial q e conocido, s prciosisima

6 6 5 -5  6  -6 6  -5   5   -4
TU SONRISA TAN RESPLANDESIENTE

5 5 4 -4  5  -5 5  -4  4 -3
A MI CORAZON DEJA ENCANTADO

-3-3  4 -5  5  4      4  -4  5  4  3  4    -5 -4 -3   4
VEN TOMA MI MANO     PARA UIR DE ESTA TERRIBLE OCURIDAD

5  5   5 5  5     5  5  -4 4  -4    55
EN EL INSTANTE EN QUE TE VOLVI A ENCONTRAR

5   55    55    5  5   -4 4 -4     55
MI MENTE TRAJOP A MI AQUEL HERMOSO LUGAR

 5   5 5    5   5 5  -4 4 4  444  4   -4   5
QUE CUANDO ERA NIÑO  FUE TAN VALIOSO PARA MI

 6 6    6 6   -5  5 5  5   5 5 5 -4 4 -4      55
QUIERO SAVER, SI ACASO TU CONMIGO QUIERES VAILAR

-5 5   5   5  5 5 -4  4 4 4
SI ME DAS TU MANO TE LLEVARE

 4   5  5 5    -5 6 6   6  6  -6   5  5
POR UN CAMINO CUBIERTO DE LUZ Y OCURIDAD

 5 -5   6 6     6 6   -6  6  -6  6 6  6   6 6 6
TALVEZ SIGAS PENSANDO EN EL NO PUEDO YO SABERLO

6 -6  5 5   5  5  5   -5  6 6  6 6  6   5
PERO SI TE ENTINENDO QUE AMOR NECESITAS TU

-3 3  3  3  4 4  4  4  -5  5  5   5  5
Y EL VALOR PARA PELEAR EN MI LO HAYARAS

6 6 5 -5 6 -6 6 -5   5 -4
MI CORAZON ENCANTADO VIBRA

5 5 4 -4  5  -5 5  -4  4 -3
CON EL POLVO DE ESPERANZA Y MAGIA

-3 -4 -5 5 4   4 -4 5 4 3  -3  4  -4  4
DEL UNIVERSO  QUE ANVICIONAN TODOS POSER

 6  6  5 -5  6 -6 -5 -4  5  4
VOI A AMARTE PARA TODA LA VIDA,

5  5   4 -4   5  -5  5  -4   4   3
NO ME IMPORTA SI AUN NO TE INTERESO

-3-3  4 -5  5  4      4  -4  5  4  3  4    -5 -4 -3   4
VEN TOMA MI MANO PARA UIR DE ESTA INFINITA OSCURIDAD

SUENA BASTANTE BIEN, AI PARTS Q VOI A MEJORAR, COMENTARIOS A MI MSN...
Versión 4 - Dragon Ball GT - dan dan kokoro hikareteku (Tablatura para guitarra (TAB))
E------------5-------------------------------------------5-3-------------------------
h-8-8--5-6-8---8--6-5-----5-5------5-6-5-------------------------3-5-6-5-3---5-6-5-3-
5----------------------7-------5-7--------7-5--4--2-2-5-------5------------5---------
d------------------------------------------------------------------------------------
a------------------------------------------------------------------------------------
e------------------------------------------------------------------------------------

E------------5-------------------------------------------5-3-------------------------
h-8-8--5-6-8---8--6-5-----5-5------5-6-5-------------------------3-5-6-5-3---3--1-0-1
5----------------------7-------5-7--------7-5--4--2-2-5-------5------------5---------
d------------------------------------------------------------------------------------
a------------------------------------------------------------------------------------
e------------------------------------------------------------------------------------
Versión 5 - Dragon Ball GT - dan dan kokoro hikareteku (Notas para armónica)
Esta Es Una Transcripcion Que Saque De Oido Y Ayudado Con Mi Guitarra
Creo Que Tiene Unos Pequeños Errores Al Final...


Armonica En G


6-6-5-(5)-6-(6)-6-(5)-5-(4)
5-5-4-(4)-5-(5)-5-(4)-4-(3)

(2)-(2)-4-(6)-6-4
(4)-5-(5)-5-(4)-4-5-(5)-(4)




6-6-5-(5)-6-(6)-6-(5)-5-(4)
5-5-4-(4)-5-(5)-5-(4)-4-(3)

(2)-(2)-4-(6)-6-4
(4)-5-(5)-5-4-(4)-(1)-2-(1)
Versión 6 - Dragon Ball GT - dan dan kokoro hikareteku (Letra y acordes)
Tócala escuchando la canción y verás, pues si no, habrán acordes que
te confundirán.

C                 G
 Tu sonrisa tan resplandeciente
 Am              Em     E7
 A mi corazón deja encantado
 F           C Am
 Ven toma mi mano
    A#               G            G#-A#-C
 Para huir de esta terrible oscuridad.


 Fm                    A#            Gm
 En el instante en que te volví a encontrar
                  Cm                Fm
 Mi mente trajo a mí aquel hermoso lugar
                G7             Cm         C7
 Que cuando era niño fue tan valioso para mi.

          G#                 A#              Gm
 Quiero saber si acaso tú conmigo quieres bailar
              Cm           Fm
 Si me das tu mano te llevare
          G7             Cm            D#
 Por un camino cubierto de luz y oscuridad,

          G#                                  Gm
 Tal vez sigues pensando en el no puedo yo saberlo
                                   Cm
 Pero se que entiendo que amor necesitas tu
 Fm             A#                  G
 Y el valor para pelear, en mi lo hallaras.


 C               G
 Mi corazón encantado vibra
 Am                  Em      E7
 Por el polvo de esperanza y magia
 F      C  Am          A#           Am G
 Del universo que ambicionan todos poseer.

 C                 G
 Voy a amarte para toda la vida
 Am                      Em    E7
 No me importa si aun no te intereso
 F           C  Am      A#               G          G#-A#-Csus4-C
 Ven toma mi mano para huir de esta infinita oscuridad.
Versión 7 - Dragon Ball GT - dan dan kokoro hikareteku (Letra y acordes)
Artista original: The Field of View
Título original: Dan Dan kokoro Hikareteku
Opening de Dragon ball GT
Version español de Chile
____________________________________________
Bb = A#
Intro: C


C                 G          Am            Em
Poco a poco me cautiva tu sonrisa, toma mi mano y vamos

F              Em Am    Dm          G                 G#    A# C
    A salir de LA   infinita obscuridad, venciendo al mal...


Fm           Bb          Gm                   Cm           Fm
   Cuando de nuevo yo te vi , volando como un ave en mi jardín,
          G           Cm      D#       G#                           Gm
recordé lugares echos para sooñar,la niñez a vuelto a mi mente otra vez,
              Cm        Fm     G              Cm       D#
como un sueño echo realidad bailabas con migo uuuuuuna más...


        G#                                 Gm
Siempre juntos podemos soñar, luchando por lograr un mundo mejor,
       Cm            F           A#                 G
echo para los dos lo lograre con amor, orgullo y valor



C                 G          Am            Em
Poco a poco me cautiva tu sonrisa, toma mi mano y vamos
F              Em Am    Dm          G
    A salir de LA   infinita obscuridad...
C                    G          Am             Em
Siempre finjo que no me importa el amor impide mi derrota
F              Em  Am            Dm          G                G#    A# C
    y me ayuda a salir de la infinita obscuridad venciendo al mal...

El material contenido en esta página es para exclusivo uso privado y con propósito meramente educativo, se prohibe su reproducción y uso con fines comerciales