Digimon - Mariposa

Acordes de la canción 'Digimon - Mariposa' de Música de TV

Versiones de esta canción: Letra y acordes - Tablatura para bajo (bass tab) - Tablatura para guitarra (TAB) - Acordes para piano o teclado (con notas)

DIGIMON

He enviado esta transcripcion por que las que habian
estaban muy incompletas, claro que sin desprestigiar
las anteriores ya que gracias a ellas pude lograr
esta cancion.

Intro: (es preferible con cegillo)
       MI  DO-LA-SI
       MI  DO-LA-SI


    MI     RE             MI    RE
E---------------------------------------------
B---9-9997---7---10-------9-9997---7----------
G----------9---------------------9-----7------
    MI      RE            MI       DO-SI-LA
E-----------------------------------7---------
B---9-9997---7---10-------9-9997------10------
G-7---------9--------------------9-------9----


   MI
Yo solamente quiero amarte
  SOL#m
y todo mi calor brindarte
            LA
te haré olvidar
     DO          RE     MI
esas penas que te hacen mal
(E-4-7744-7h4-4h5-4h5h4h5--7)6º cuerda

h: notas ligadas

MI
Hay que dar el sentimiento
     SOL#m
y en cada momento vivirlo
            LA
te haré olvidar
     DO          RE     MI
esas penas que te hacen mal
(E-4-7744-7h4-4h5-4h5h4h5--7)6º cuerda

Pre-coro:

        DO#m    SOL#m
Con el amor-o-o-o-or
         LA                    MI
se puede siempre alcanzar lo mejor
        DO#m    SOL#m
Con el amor-o-o-o-or
    LA         SI        DO       RE   SI
los sueños que tengas se van a cumpliiiir.


SOL#m-LA    SI
(E--4h5-4h5-7-)1º cuerda

Coro:
MI         SI            DO#m
Si tú lo deseas puedes volar
     SOL#m         LA            SOL#m  DO#m
sólo tienes que confiar mucho en tí y seguir
   LA                    SI
puedes contar conmigo te doy todo mi apoyo

MI         SI            DO#m
Si tú lo deseas puedes volar
      SOL#m                 LA
si tú quieres el cielo alcanzar
        SOL#m    DO#m
y las estrellas tocar
DO RE MI(es preferible con cegillo)
Di-gi-mon.

Fin:
    MI     RE             MI    RE
E---------------------------------------------
B---9-9997---7---10-------9-9997---7----------
G----------9---------------------9-----7------
    MI      RE            MI       DO-SI-LA
E-----------------------------------7---------
B---9-9997---7---10-------9-9997------10------
G-7---------9--------------------9-------9----
     MI
E--------------------------------
B---9h10h12----------------------
G-----------9--------------------

Les recomiendo escuchar esta cancion, se daran cuenta
de que les saldra facil ya que me he encargado de poner
todos los acordes en su lugar. Saludos a todos los amigos
de la cuerda.
Versión 2 - Digimon - Mariposa (Tablatura para bajo (bass tab))
Ola otra EzzZ

Me maté busacndo en la Web (web-ando) el tab para bajo de esta cancion
y en resignacion
la sake yo mesmo ! (h) aki sta !


Disculpen las molestias es que mi tab lo escribi al revés =P xD el
G cambien
por E osea el orden de las cuerdas
Intro:

G||---0----0--
D||-----------
A||-----------
E||-----------


G-0-0-0-0-0-0-0-0-----------|
D---------------------------|
A---------------------------|  (4 veces)
E---------------------------|

Verse: (Yo solamente quiero amarte(8)...)

G-0*-0-0(x8)-2-2-4-4(x18)-2-4---------------------------------|
D-----------------------------0-0-0-0-0-0-3-3-3-5-5-5-5/0-----|
A-------------------------------------------------------------|
E-------------------------------------------------------------|

G-0-3h4-0-3h4-0--0-2p0-3p0-4p0-|
D------------------------------|
A------------------------------|   (2 veces)
E------------------------------|

(Con el amoor oh huo (8)... )

G-9(x4)-10--8(x4)-10--7(x12)-8-9(x4)-10--8(x4)-10--7(x12)-8--|
D------------------------------------------------------------|
A------------------------------------------------------------|
E------------------------------------------------------------|

(Y los sueños se van a cumplir (8)...)

G--9-9-9-11---------------------------|
D-----------7--9----------------------|
A-------------------------------------|
E-------------------------------------|


Si tu lo deseas ...(8)

G-------7(x7)--9(x7)-4(x7)--------7(x7)-9--------------------|
D-7(x7)--------------------0-(x7)---------7-9----------------|
A------------------------------------------------------------| (2 veces)
E------------------------------------------------------------|


despues de que dice "tocar" hasta "Digi"


G-9-7-6--9-7-6--9-7-6--9-7-6--9-7------------|
D---------------------------------7----------|
A--------------------------------------------|
E--------------------------------------------|


mon
G---------------------------|
D---------------------------|
A-7(x6)-5(x3)-4(x3)- 5(x2)--|  (4 veces)
E---------------------------|


Outro
G-------------------------------4-5-7-0||
D--------5--4-0------------------------||
A--------------------------------------||
E--------------------------------------||



Que les aproveche, es el primer cover de mi grupo Gracias Andy ^^


*Vibrato
Versión 3 - Digimon - Mariposa (Tablatura para guitarra (TAB))
ok... e oido muchas veces que buscan la tab de esta cancion haci que para
no sufran mas,,, aqui la traigo...  ahh esta tab solo esta hasta algo
incompleta =P los que la quieran entera diganmelo por mail >> brunos199@..
viva digimon =D!

Intro 1era Guitarra (0:00 - 0:05)

|-----------------------------------------------|
|-----------------------------------------------|
|-9-99-99-99777-6-7----9-99-99-99-99777-6-7-----|
|-x-xx-xx-xxxxx-x-x----x-xx-xx-xx-xxxxx-x-x-----|
|-7-77-77-77555-4-5----7-77-77-99-77555-4-5-----|
|-----------------------------------------------|
    ..    ..             ..       ..

Intro 2da guitarra (0:03 - 0:04)

Aqui tienen que deslizar un borde de la pua o uña
hasta el traste 4 masomenos.. (SOLO CON DISTORCION)

|--19-<<<<<<<<<<<<<<<<<<4-----------------------|
|--19-<<<<<<<<<<<<<<<<<<4-----------------------|
|-----------------------------------------------|
|-----------------------------------------------|
|-----------------------------------------------|
|-----------------------------------------------|

Guitarra 1 (0:05 - 0:11)

|-----------------------------------------------|
|-----------------------------------------------|
|-9-99-99-99-7-6-7--------9-99-99-99-99-7-6-----|
|-x-xx-xx-xx-x-x-x--------x-xx-xx-xx-xx-x-x-----|
|-7-77-77-77-5-4-5--------7-77-77-99-77-5-4-----|
|-----------------------------------------------|

Guitarra 1 (0:11 - 0:17)

|-----------------------------------------------|
|-----------------------------------------------|
|-9-99-99-99-7-6-7--------9-99-99-99-99-7-6-2---|
|-x-xx-xx-xx-x-x-x--------x-xx-xx-xx-xx-x-x-x---|
|-7-77-77-77-5-4-5--------7-77-77-99-77-5-4-0---|
|-----------------------------------------------|


Riff 1 (0:05 - 0:11)
|-----------------------------------------------|
|-9-9^-7-5-7-10//-------9-9^-7-5-7--------------|
|---------------------------------7//-----------|
|-----------------------------------------------|
|-----------------------------------------------|
|-----------------------------------------------|

""""  (0:11 - 0:17)
|-------------------------------10-9------------|
|-9-9^-7-5-7-10//------9-9^-7-5-----7//---------|
|-----------------------------------------------|
|-----------------------------------------------|
|-----------------------------------------------|
|-----------------------------------------------|

Verse (Verso)

Solamente quiero amarte              (0:16 - 019)

|----------------------------|
|----------------------------|
|----------------------------|
|-2-xxxxxxxxxx---------------|
|-2-xxxxxxxxxx---------------|
|-0-xxxxxxxxxx---------------|

Y todo mi calor brindarte           (0:19 - 0:21)

|----------------------------|
|----------------------------|
|----------------------------|
|-6-xxxxxxxxxx---------------|
|-6-xxxxxxxxxx---------------|
|-4-xxxxxxxxxx---------------|

Te hare olvidar                     (0:22 - 0:23)

|----------------------------|
|----------------------------|
|----------------------------|
|-8-xxxxx--------------------|
|-8-xxxxx--------------------|
|-6-xxxxx--------------------|

Esas penas que te hacen mal...      (0:24 - 0:26)

|----------------------------|
|----------------------------|
|----------------------------|
|-10-1010---12-1212----------|
|-10-1010---12-1212----------|
|--8--8-8---10-1010----------|

Parte del Bajo con Guitarra         (0:26 - 0:29)

|-----------------------------------------------|
|-----------------------------------------------|
|-----------------------------------------------|
|-----------------------------------------------| <<< Parte arreglada
|-00-34-0-34-0-0-2-0-3-0-4----------------------|       por Anzter
|-----------------------------------------------|

Hay que dar el sentimiento         (0:29)

|-------------------5-5/3--------|
|-------------------5-5/3--------|
|-------------------x-x-x--------|
|-2-xxxxxxxxxx------7-7/5--------|
|-2-xxxxxxxxxx-------------------|
|-0-xxxxxxxxxx-------------------|

Y cada momento vivirlo

|-------------------5-5/3--------|
|-------------------5-5/3--------|
|-------------------x-x-x--------|
|-6-xxxxxxxxxx------7-7/5--------|
|-6-xxxxxxxxxx-------------------|
|-4-xxxxxxxxxx-------------------|

Te hare olvidar

|--------------------------------|
|--------------------------------|
|--------------------------------|
|-8-xxxxx------------------------|
|-8-xxxxx------------------------|
|-6-xxxxx------------------------|

Esas penas que te hacen mal...     (0:37)

|--------------------------------|
|--------------------------------|
|--------------------------------|
|-10-1010---12-1212--------------|
|-10-1010---12-1212--------------|
|--8--8-8---10-1010--------------|

Parte del Bajo con Guitarra

|-----------------------------------------------|
|-----------------------------------------------|
|-----------------------------------------------|
|-----------------------------------------------| <<< Parte arreglada
|-00-34-0-34-0-0-2-0-3-0-4----------------------|       por Anzter
|-----------------------------------------------|

(o:49 - 0:54)

|-------------------------------x-5-x-5/7-------|
|-------------------------------x-5-x-5/7-------|
|-----2------4------5-----7-----x-7-x-7/9-------|
|---2-----4-------5-----7-----------------------|
|-0-----2-------3-----5-------------------------|
|-----------------------------------------------|

Final

|-----------4-5-7-0------------------|
|------------------------------------|
|-7-6-2/-----------------------------|
|-x-x-x------------------------------|
|-5-4-0/-----------------------------|
|------------------------------------|
Versión 4 - Digimon - Mariposa (Acordes para piano o teclado (con notas))
Esta melodía está basada de la partitura ORIGINAL japonesa,
claro, con pequeños arreglos para que se pueda cantar en español
tal y como se canta en la TV, el tono de esta melodía es MI mayor.


||: Sol# si si  si si  sol# do# si  sol# si si si si Si  sol# do#8 re#8

sol# fa#  sol# fa# mi  mi  mi sol fa# la  sol  fa# mi :||


sol# sol# sol# mi8 re8 do8 si sol#  sol# fa# sol# fa# mi mi fa# sol# la sol#

sol# sol# sol# mi8 re8 do8 si sol#  sol# la sol# la si la si do8 si do8 re8 do8

mi8 mi8 fa#8 sol#8 fa#8 fa#8 sol#8 fa#8 mi8 re8 mi8

do#8 mi8 sol#8 fa#8 mi8 fa#8 mi8 mi8 re#8 do#8 si sol# do#8

do# mi8 do#8 mi8 do#8 mi8 do#8 do#8 sol# sol# fa# fa# mi fa#

mi8 mi8 fa#8 sol#8 fa#8 fa#8 sol#8 fa#8 mi8 re8 mi8

do#8 mi8 sol#8 fa#8 fa#8 si8 re#8 re#8 re#8 mi8

mi8 re#8 do#8 si si fa#8 mi8 mi----re----mi----

Lyric:

1.- Sólamente quiero amarte y todo mi calor brindarte,
te haré olvidar esas penas que te hacen mal.

2.- Hay que dar el sentimiento y cada momento vivirlo,
te haré olvidar esas penas que te hacen mal.

Con el amor huo huo huo huo siempre te sientes algo mejor,
Con el amor huo huo huo hou lo sueños que tengas se van a cumplir...

Si tú lo deseas puedes volar solo tienes que confiar
mucho en ti, seguir, puedes contar conmigo, te doy todo mi apoyo.
Si tú lo deseas puedes volar si tú quieres el cielo alcanzar
y las estrellas tocar        Di    gi   mon...

El material contenido en esta página es para exclusivo uso privado y con propósito meramente educativo, se prohibe su reproducción y uso con fines comerciales