Curro Jiménez

Acordes de la canción 'Curro Jiménez' de Música de TV

-0-1-0---0----0-0-0--0-1-3-1-0------0-1-0---0-0-0----0-1-3-5-6-5-3-1-
-------3-----------3------------3---------3-------3------------------
---------------------------------------------------------------------
---------------------------------------------------------------------
---------------------------------------------------------------------
---------------------------------------------------------------------

-0-1-0---0------0-0--------------------------------------------------
-------3------3-----3-1-0-1-3-1-0-1---0-1-0---0-----0----------------
--------------------------------------------2------2--2-1-1h2--------
---------------------------------------------------------------------
---------------------------------------------------------------------
---------------------------------------------------------------------

---------------------------------------------------------------------
-----------0-3-1-0---------------------------------------------------
-2-2-2-1-2---------2-1-----------------------------------------------
-----------------------2-2-2-2-2-2-2-0-0-----------------0-2-0-2---0-
-----------------------------------------3-3-2-2-0-0-2-3---------3---
---------------------------------------------------------------------

---------------------------------------------------------------------
---------------------------------------------------------------------
---------------------------------------------------------------------
-----------------------0---0-----------------------------------------
-2-2-0-0---------0-2-3---3---2-3-0-0---------------0-2-3-2-3--0-2...-
---------3-3-2-3---------------------3-3-2-2-0-2-3-------------------

-0-----------------------0---0---------------------------------------
---3-3-1-1-0-0-----0-1-3---3---1-3-0-0---------------0-1-3-1-3-0-1---
---------------2-2---------------------2-2-0-0---0-2-----------------
-----------------------------------------------3---------------------
---------------------------------------------------------------------
---------------------------------------------------------------------

--------------------------------------------0------------------------
---------------------0-1-0-1------------------3-3--3-1-0-------------
-2-2-0-0---------0-2---------2-1-------------------------------------
---------3-3-2-3-----------------2-2...------------------------------
---------------------------------------------------------------------
---------------------------------------------------------------------

-3-3-3-3-3-1-0----0-0-0--0----0-1-3-1-0----0-1-0---0---0-0-0--0------
----------------------------3-----------3--------3-------------------
---------------------------------------------------------------------
---------------------------------------------------------------------
---------------------------------------------------------------------
---------------------------------------------------------------------

---0-1-3-5-6-5-3-1--0-1-0---0---0-0-0--0----0-1-3-1-0----0-1-0---0---
-3------------------------3---------------3-----------3--------3-----
---------------------------------------------------------------------
---------------------------------------------------------------------
---------------------------------------------------------------------
---------------------------------------------------------------------

-0-0-0--0----0-1-3-5-6-5-3-1--0-1-0---0------0-0---------------------
-----------3------------------------3------3-----3-1-0--1-3--1-0-1---
---------------------------------------------------------------------
---------------------------------------------------------------------
---------------------------------------------------------------------
---------------------------------------------------------------------

---------------------------------------------------------------------
-0-1-0---0-----0--------------------------0-3-1-0--------------------
-------2-----2---2-1-1h2----2-2-2-2-2-1-2---------2-1----------------
------------------------------------------------------2-2-2-2-2...---
---------------------------------------------------------------------
---------------------------------------------------------------------

-0-----------------------0---0---------------------------------------
---3-3-1-1-0-0-----0-1-3---3---1-3-0-0---------------0-1-3-1-3-0-1---
---------------2-2---------------------2-2-0-0---0-2-----------------
-----------------------------------------------3---------------------
---------------------------------------------------------------------
---------------------------------------------------------------------

--------------------------------------------0------------------------
---------------------0-1-0-1------------------3-3-1-1-0-0-----0-1-3--
-2-2-0-0---------0-2---------2-1--------------------------2-2--------
---------3-3-2-3-----------------2-2...------------------------------
---------------------------------------------------------------------
---------------------------------------------------------------------

-0---0--1-3-5-3-1-3-5-3-1-3-5-3-1-3-5--7-8--10-8-7-7h8--10-10-10-8-7-
---3-----------------------------------------------------------------
---------------------------------------------------------------------
---------------------------------------------------------------------
---------------------------------------------------------------------
---------------------------------------------------------------------

--0-0-0--0-0-0-------0-----------------------------------------------
---------------3-1-3---3-1-1h3---3-3-3-1-0-1--3-1-0-0h1--3-3-3-1-0---
------------------------------------------------------------------2-1
---------------------------------------------------------------------
---------------------------------------------------------------------
---------------------------------------------------------------------

-0----------------0--------------------------------------------------
---3-1--0---0-1-3----1-3-0----------0-1-3--0-1-----------------------
----------2----------------2--0-0-2------------2-2---1---------------
-------------------------------------------------------3-2-0---------
-------------------------------------------------------------3-2-0---
-------------------------------------------------------------------4-

-0---------------0-0-0-0----------0----------------------------------
---3-3--3-1-0------------3-1-0---------------------------------------
---------------------------------------------------------------------
---------------------------------------------------------------------
---------------------------------------------------------------------
---------------------------------------------------------------------

Transcrito por CarlosRP :)

Dedicado a mi tío Rafa, quien me enseñó esta canción y el culpable de
mi afición por la guitarra... ;)

El material contenido en esta página es para exclusivo uso privado y con propósito meramente educativo, se prohibe su reproducción y uso con fines comerciales