Candy (el final)

Acordes de la canción 'Candy (el final)' de Música de TV

Hola soy yo de nuevo con mis locuras.. ahi se las dejo, esta es la del final


|---------------------------------------------------------------------
|-5-5-5-5-5-3---5-5-5-5-8-6-5-5h6-3-3-5-6-6-5-3-----------------------
|-------------5---------------------------------5-7-5-4-4-2-4-5-------
|---------------------------------------------------------------------
|---------------------------------------------------------------------
|---------------------------------------------------------------------

|---------------------------------------------------------------------
|-5-5-5-5-5-3---5-5-5-5-8-6-5-5h6-3-3-5-6-6-8-6-5-6-5-3-3-------------
|-------------5-------------------------------------------5-4-5-------
|---------------------------------------------------------------------
|---------------------------------------------------------------------
|---------------------------------------------------------------------

|-5-5-5-5-7-8-7-5-3-3-3-5/7-5-----------5-7-8-5--5-7-8-5--5-7-8-8/10-3-
|-----------------------------5-5-6-5-3--------------------------------
|----------------------------------------------------------------------
|----------------------------------------------------------------------
|----------------------------------------------------------------------
|----------------------------------------------------------------------

|-8h7h8--8h7h8--8h7h8-8/10-7-8-----------------------------------------
|----------------------------------------------------------------------
|----------------------------------------------------------------------
|----------------------------------------------------------------------
|----------------------------------------------------------------------
|----------------------------------------------------------------------


"En mi ventana veo brillar 
as estrellas muy cerca de mi
cierro los ojos, quiero soñar
con un dulce porvenir

Quiero vivir y disfrutar 
la alegria de la juventud
cada noche, para mi
mil estrellas que den luz

Gira, gira carrusel
tus ruedas de cristal
recorriendo mil caminos
tu destino encontraras

Candy, candy, candy, Candy

El material contenido en esta página es para exclusivo uso privado y con propósito meramente educativo, se prohibe su reproducción y uso con fines comerciales