Caballeros del zodiaco Abel Theme

Acordes de la canción 'Caballeros del zodiaco Abel Theme' de Música de TV

Versiones de esta canción: Tablatura para guitarra (TAB) - Tablatura para guitarra (TAB) - Acordes para piano o teclado (con notas)

Que onda carnales see soy EL MEXICANO wuu !
Bueno para toda la banda que le gusta el saint Seiya

               ->Facil<--
=O Dificultad :  Intermedio
                 Dificil

||7--10--12--9------7--10>14--14-17-19--16-14-12-14--------------
||7----------10-10--7---------15--------17-------15--------------
||7----------9------7---------14--------16-------14------------
||9----------11-----9--------------------------------------------
||9-----------------9--------------------------------------------
||7-----------------7--------------------------------------------



||7--10--12--9------7--10>14--12-10-9---9------------------------
||7----------10-10--7---------14----------12-10-12---------------
||7----------9------7---------14---------------------------------
||9----------11-----9--------------------------------------------
||9-----------------9--------------------------------------------
||7-----------------7--------------------------------------------



||-17-19-17-16-14--16-17-191719-16-14---10-12-101210-9--7--------
||---------------------------------------------------------------
||---------------------------------------------------------------
||---------------------------------------------------------------
||---------------------------------------------------------------
||---------------------------------------------------------------


es Todo hehe suena bien se repite varias veces y pueden
cambiar el ultimo rekinto para
terminar la cancion con cejilla en 7to

10-12-101210-9--5--7
-------------------7
-------------------7
-------------------9
-------------------9
-------------------7

Dudas, quejas, sugerencias, consejos
regaños, mentadas XD esas aka --> kraken_x1@hotmail.com
Saludos desde Morelia,Michoacán, México
Versión 2 - Caballeros del zodiaco Abel Theme (Tablatura para guitarra (TAB))
Aqui tienen para todos los aficionados de los Caballeros del Zodiaco,
este es el tema de Abel de la primer pelicula, espero que les guste, 
cualquier duda, comentario o critica enviarla a mi correo.



||--------------9----------------------14--17-19-16-14-12--14----
||---12---15-17-----10-12--15--19--------------------------------
||---------------------------------------------------------------
||---------------------------------------------------------------
||---------------------------------------------------------------
||---------------------------------------------------------------


||--------------9-------------------------------------------------
||---12---15-17-----10-12--15--19-----17-15-14--14-12-10--12------
||----------------------------------------------------------------
||----------------------------------------------------------------
||----------------------------------------------------------------
||----------------------------------------------------------------


||------------------16-17-19-17-16-14---16-17-19-17-19-17-16-14---
||---12-14-15-17-19-----------------------------------------------
||----------------------------------------------------------------
||----------------------------------------------------------------
||----------------------------------------------------------------
||----------------------------------------------------------------


||----------------------------------------------------------------
||---15-17-15-17-15-14---12----15---19----------------------------
||----------------------------------------------------------------
||----------------------------------------------------------------
||----------------------------------------------------------------
||----------------------------------------------------------------


||---17-19-17-16-14--16-17-19-17-19-17-16-14----------------------
||----------------------------------------------------------------
||----------------------------------------------------------------
||----------------------------------------------------------------
||----------------------------------------------------------------
||----------------------------------------------------------------


||----------------------------------------------------------------
||---15-17-15-17-15-14--------------------------------------------
||-----------------------14---14---16-----------------------------
||----------------------------------------------------------------
||----------------------------------------------------------------
||----------------------------------------------------------------


||---17-19-17-16-14--16-17-19-17-19-17-16-14----------------------
||----------------------------------------------------------------
||----------------------------------------------------------------
||----------------------------------------------------------------
||----------------------------------------------------------------
||----------------------------------------------------------------


||----------------------------------------------------------------
||---15-17-15-17-15-14---12---15---19-----------------------------
||----------------------------------------------------------------
||----------------------------------------------------------------
||----------------------------------------------------------------
||----------------------------------------------------------------


||---17-19-17-16-14--16-17-19-17-19-17-16-14----------------------
||----------------------------------------------------------------
||----------------------------------------------------------------
||----------------------------------------------------------------
||----------------------------------------------------------------
||----------------------------------------------------------------


||----------------------------------------------------------------
||---15-17-15-17-15-14---12---15---19-----------------------------
||----------------------------------------------------------------
||----------------------------------------------------------------
||----------------------------------------------------------------
||----------------------------------------------------------------
Versión 3 - Caballeros del zodiaco Abel Theme (Acordes para piano o teclado (con notas))
Los bajos de la primera y tercera parte son arpegiados.



Bajos: sol inv. -    La-     Sim   -      Re       -          Mi     - Re

Notas:si re mi-do# la-si re fa#-fa# sol la-sol# fa# mi-fa#


Bajos: Sol inv.- La  -   Sim  -La  La    Sim

Notas: si re mi-do# la-si re fa#-mi re do#-do# si la–Si




Bajos:        Re         -            Re


Notas:la si la sol# fa#-sol# la si la si la sol# fa#-


Bajos:  Sim      -     Sim

Notas: re mi re mi re do# re mi


Bajos:      Re         -       Re

Notas:la si la sol# fa#- sol# la  si la si la sol# fa#


Bajos:      Sim  -   Sim

Notas: re mi re mi re mi re do# re mi


Bajos: sol inv. -  La- Sim -  Re  -    Mi     - Re

Notas: si re mi - do# la- si re fa#- fa# sol la- sol# fa# mi - fa#





Bajos: sol inv. -   La  - Sim   -   La  - La   -     Sim

Notas:si re mi-do# la-si re fa#-mi re do#-do# si la – si






cualkier duda a : gonzalo_x4@hotmail.com

El material contenido en esta página es para exclusivo uso privado y con propósito meramente educativo, se prohibe su reproducción y uso con fines comerciales