Bob Esponja - Cancion inicial

Acordes de la canción 'Bob Esponja - Cancion inicial' de Música de TV

Versiones de esta canción: Tablatura para guitarra (TAB) - Tablatura para guitarra (TAB) - Tablatura para guitarra (TAB)

vive en una piña debajo del mar...bob es-pon-ja...
------------------------------------------------------
------------------------------------------------------
-7-7-9-7-------7-7-9-7--------------------------------
---------9-------------9------------------------------
-----------10-----------------------------------------
------------------------------------------------------

su cuerpo absorbe y sin estallar.......bob es-pon-ja...
------------------------------------------------------
------------------------------------------------------
--12-12-14-12------------12-12-14-12------------------
---------------14--------------------14---------------
------------------15----------------------------------
------------------------------------------------------

el mejor amigo que podrias desear...bob es-pon-ja...
------------------------------------------------------
------------------------------------------------------
--7-7-9-7-------7-7-9-7-------------------------------
----------9-------------9-----------------------------
------------10----------------------------------------
------------------------------------------------------

y como a un pez le es facil flotar....bob es-pon-ja...
------------------------------------------------------
------------------------------------------------------
-12-12-14-12--------12-12-14-12-----------------------
-------------14-----------------14--------------------
----------------15------------------------------------
------------------------------------------------------

bob es-pon-ja   bob es-pon-ja  bob es-pon-ja
------------------------------------------------------
-8--5-----------8--5----------8--5--------------------
-------7--0-----------7--0----------7--0--------------
------------------------------------------------------
------------------------------------------------------
------------------------------------------------------

el es boooob....es-ponjaaaaaa      JA JA JA
------------------------------------------------------
-3-3-5----------7--8-8--------------------------------
------------------------------------------------------
------------------------------------------------------
------------------------------------------------------
------------------------------------------------------

(silbido)
------------------------------------------------------
-8-10-12-10---12-8---8--------------------------------
-------------------7----------------------------------
------------------------------------------------------
------------------------------------------------------
------------------------------------------------------


Viva Bob Esponja!!
Versión 2 - Bob Esponja - Cancion inicial (Tablatura para guitarra (TAB))
Grecia te dedico esta canción por que contigo pase momentos
Supere curadas y espero q siempre sigas asi de alegre!!!! TQM


Uhhh! Vive en una piña de bajo del mar
Bob esponja
e-3-0-------
b------3-0--
g-----------


su cuerpo absorbe y sin estallar
Bob esponja
e-3-0-------
b------3—0—-
g-----------


el mejor amigo que podrías desear
Bob esponja
e-3-0-------
b------3—0—-
g-----------

y como un pez le es fácil flotar
Bob esponja   todos!
e-3-0-------
b------3—0—-
g-----------


Bob esponja   Bob esponja   Bob esponja
e-3--0----------3--0----------3--0--------
b-------3--0----------3--0----------3--0--
g-----------------------------------------


el es Bob esponja!!!!!!!!jajajaja
e-------0---2--3--3-------------
b-3--3--------------------------
g-------------------------------


el silbido
e-3-3--5-3--7-3---3---------------------
b----------------3----------------------
c---------------------------------------
el silbido se oye mejor tocándolo rápido
Versión 3 - Bob Esponja - Cancion inicial (Tablatura para guitarra (TAB))
buscando la cacniocn de bob esponja, me di cuenta q la melodia
q aparecia en estas versiones estaban mal, todavia no le puse los
bajos en resumen es la melodia simple

vive en una piña debajo del mar    bob esponja
----------------------             7------
-7-7-9-7-------7-9-7--             --9-7--
---------8---8-------8             ------8
-----------9----------             -------
----------------------             -------



su cuerpo absorbe y sin estallar   bob esponja

-7-7-9-7-------7-9-7--             12-9-7-
---------9---9-------9             ------9
-----------9----------             -------
----------------------             -------
----------------------             -------


el mejor amigo que podrías desear  Bob esponja
----------------------             7------
-7-7-9-7-------7-9-7--             --9-7--
---------8---8-------8             ------8
-----------9----------             -------
----------------------             -------


y como un pez le es fácil flotar   Bob esponja

-7-7-9-7-------7-9-7--             12-9-7-
---------9---9-------9             ------9
-----------9----------             -------
----------------------             -------
----------------------             -------


Bob esponja   Bob esponja   Bob esponja
------------------------------------
-7------------7-------------7-------
---8-6----------8-6-----------8-6---
-------8------------8-------------8-
------------------------------------


el es Bob esponja!!!!!!!!jajajaja
---------------------------
-------6-7-7---------------
-6-6-8---------------------
---------------------------
---------------------------


el silbido
---------------------12/14-
-------11----11------------
-11-13----13----11---------
---------------------------
---------------------------


eso ultimo de 12/14 es que se arrastra
del traste 12 al 14 espero q les guste o al menos les sirva de guia
 si lo quieren hacer mejor por supuesto :) saludos

El material contenido en esta página es para exclusivo uso privado y con propósito meramente educativo, se prohibe su reproducción y uso con fines comerciales