Batman

Acordes de la canción 'Batman' de Música de TV

BUENO PUES ESTA ES LA VERSION 'DANCE' DE BATMAN (LA VIEJITA QUE IBA MAS O MENOS:TARA RA RA RA RA RA TARA)
AHI PUES USTEDES AGARRENLE EL RITMO STA BIEN FACIL!!!

E||------------------------|------------------------|------------------------|------------------------|
B||------------------------|------------------------|------------------------|------------------------|
G||------------------------|------------------------|------------------------|------------------------|
D||------------------------|------------------------|------------------------|------------------------|
A||-7--7--6--6--5--5--6--6-|-7--7--6--6--5--5--6--6-|-7--7--6--6--5--5--6--6-|-7--7--6--6--5--5---6---|
E||-5--5--4--4--3--3--4--4-|-5--5--4--4--3--3--4--4-|-5--5--4--4--3--3--4--4-|-5--5--4--4--3--3---4---|

E||------------------------|------------------------|
B||------------------------|------------------------|
G||------------------------|------------------------|
D||-7--7--6--6--5--5--6--6-|-7--7--6--6--5--5---6---|
A||-5--5--4--4--3--3--4--4-|-5--5--4--4--3--3---4---|
E||------------------------|------------------------|

E||------------------------|------------------------|------------------------|------------------------|
B||------------------------|------------------------|------------------------|------------------------|
G||------------------------|------------------------|------------------------|------------------------|
D||------------------------|------------------------|------------------------|------------------------|
A||-7--7--6--6--5--5--6--6-|-7--7--6--6--5--5--6--6-|-7--7--6--6--5--5--6--6-|-7--7--6--6--5--5---6---|
E||-5--5--4--4--3--3--4--4-|-5--5--4--4--3--3--4--4-|-5--5--4--4--3--3--4--4-|-5--5--4--4--3--3---4---|

E||------------------------|------------------------|
B||------------------------|------------------------|
G||------------------------|------------------------|
D||-7--7--6--6--5--5--6--6-|-7--7--6--6--5--5---6---|
A||-5--5--4--4--3--3--4--4-|-5--5--4--4--3--3---4---|
E||------------------------|------------------------|

E||------------------------|------------------------|------------------------|------------------------|
B||------------------------|------------------------|------------------------|------------------------|
G||------------------------|------------------------|------------------------|------------------------|
D||------------------------|------------------------|------------------------|------------------------|
A||-7--7--6--6--5--5--6--6-|-7--7--6--6--5--5--6--6-|-7--7--6--6--5--5--6--6-|-7--7--6--6--5--5---6---|
E||-5--5--4--4--3--3--4--4-|-5--5--4--4--3--3--4--4-|-5--5--4--4--3--3--4--4-|-5--5--4--4--3--3---4---|

E||------------------------|------------------------|------------------------|
B||------------------------|------------------------|------------------------|
G||------------------------|------------------------|------------------------|
D||------------------------|------------------------|------------------------|
A||-7--7--6--6--5--5--6--6-|-7--7--6--6--5--5--6--6-|-7--7--6--6--5--5--6--6-|
E||-5--5--4--4--3--3--4--4-|-5--5--4--4--3--3--4--4-|-5--5--4--4--3--3--4--4-|

E||------------------------|------------------------|------------------------|------------------------|
B||------------------------|------------------------|------------------------|------------------------|
G||------------------------|------------------------|------------------------|------------------------|
D||------------------------|------------------------|------------------------|------------------------|
A||--------9-----9---------|--------7-----7---------|--------5-----5---------|--------5-----5---------|
E||--------7-----7---------|--------5-----5---------|--------3-----3---------|--------3-----3---------|

El material contenido en esta página es para exclusivo uso privado y con propósito meramente educativo, se prohibe su reproducción y uso con fines comerciales