Barney

Acordes de la canción 'Barney' de Música de TV

Versiones de esta canción: Tablatura para guitarra (TAB) - Tablatura para guitarra (TAB)

Estos son los porque de este tab:
PORQUE todas las demás están incompletas
PORQUE todavía te gusta Barney
PORQUE quieres su canción
PORQUE les falta lo mas chido
PORQUE Esta es una parte nueva no se había tabulado nunca


Para los amantes de barney la 100% correcta
y completa de su
Intro


E]----0-0-2-4-0-4-2-[
B]-0----------------[
G]------------------[
A]------------------[
D]------------------[
E]------------------[

e]----0-0-2-4--0----[
B]-0--------------4-[
G]------------------[
A]------------------[
D]------------------[
E]------------------[

E]----0-0-2-4-5-4-2-0---------0-0-[
B]-0------------------4-0-2-4-5-5-[
G]--------------------------------[
A]--------------------------------[
D]--------------------------------[
E]--------------------------------[

Y la parte que nunca antes se había tabulado:

(va mas rápido)

E]-------------0------------------[
B]-2-4-2---2-4---2---2------------[
G]-------4---------4---4-2-1-4----[
A]--------------------------------[
D]--------------------------------[
E]--------------------------------[


E]-------------0------------------[
B]-2-4-2---2-4---2---5-4--7--5-5--[
G]-------4---------4--------------[
A]--------------------------------[
D]--------------------------------[
E]--------------------------------[

(esto es al final cuandole brilla
 el ojo a barney en modo peluche)

E]--0-5-5-7-9-10-9-7-5-4-0--2-4-5-5-[
B]-----------------------|----------[
G]-----------------------|----------[
A]-----------------------|----------[
D]-----------------------|----------[
E]-----------------------|----------[
                         |—»ó 4



Yo rulo men, tu no

atte. un trovador rockero
Versión 2 - Barney (Tablatura para guitarra (TAB))
e||------------0-----0-----|-----------------0--------|
B||---1--1--3-----1-----3--|--------1--1--3-----1--3--|
G||·-----------------------|--0--0--------------------|
D||·-----------------------|--------------------------|
A||------------------------|--------------------------|
E||------------------------|--------------------------|

e||-------------0--1--0-----------|-------------------|
B||----1--1--3-----------3--1--0--|---------0--1--1---|
G||-------------------------------|---0--2------------|
D||-------------------------------|-------------------|
A||-------------------------------|-------------------|
E||-------------------------------|-------------------|

e||-------------------------|-------------------------|
B||-------0-----------0--1--|-------------------------|
G||----2-----2--0--2--------|--2--0--2--0--------0----|
D||-------------------------|--------------3--2-------|
A||-------------------------|-------------------------|
E||-------------------------|-------------------------|

e||-----------------------|---------------------------|
B||-----0-----------0--1--|--1--1--0--------0--1--1---|
G||--2-----2--0--2--------|-----------0--2-----------·|
D||-----------------------|--------------------------·|
A||-----------------------|---------------------------|
E||-----------------------|---------------------------|








SALU2 A TODOS, ESPERO QUE LES GUSTE

El material contenido en esta página es para exclusivo uso privado y con propósito meramente educativo, se prohibe su reproducción y uso con fines comerciales