Angel

Tabs, letra y acordes de 'Angel' por Música de TV

Versiones disponibles: Letra y acordes - Tablatura para guitarra (TAB) - Tablatura para guitarra (TAB)

Intro (F Bb C Am Dm Gm)


Verse 1
F
Angel,
        Bb
la niña de las flores
C
llenas,
            Am
los prados de colores
Dm             Gm
nos rodeas con tu bondad
            C
y con todo tu amor


Verse 2
F
Angel,
           Bb
eres tan dulce y bella
C
tienes,
            Am
el brillo de una estrella
Dm
sacas,
           Gm
lo bueno de la gente
             C
con ejemplos de amor.

Coro
C               F
Con tu llave mágica
C            F
buscas esa flor
E              Am
nos darás felicidad
Dm               Gm      C
y el camino mas fácil será


Verse 3

Angel, estrella de las flores
buscas aquellos siete colores
en una flor encontraras dando felicidad....

Coro

Esta cancion la dedico a mi sobrino
David Alexander Echeverria Perugachi con mucho cariño.....
Versión 2 - Angel (Tablatura para guitarra (TAB))
¿Recuerdan la famosa serie animada: Ángel...?

 ___________________________________________________
|                                                   |
|                   L E E  E S T O                  |
|___________________________________________________|
|                                                   |
| Antes de copiar esta transcripción a un archivo   |
| de texto, debes seleccionar la fuente tipográfica |
|  COURIER NEW  o  LUCIDA CONSOLE  , así no se te   |
| moverán los acordes ni los punteos de su posición |
| original y podrás tocar la canción correctamente. |
|___________________________________________________|

       ____________________________________
      |                                    |
      |  ********************************  |
      |  * ÁNGEL, LA NIÑA DE LAS FLORES *  |
      |  ********************************  |
      |  ********* MEMO AGUIRRE *********  |
      |  ********************************  |
      |  * * * *  Tono: Original  * * * *  |
      |  *Transcripción:Rodrigo González*  |
      |  ********************************  |
      |____________________________________|


=INTRO=(Punteo en Guitarra)
   RE          SOL          LA           RE
E---------------7-7------- -------------------------
B--7-7---7-8-10-----10-8-- ----------7-8-10-10-8-7--
G------------------------- --9-9---9----------------
D------------------------- -------------------------
A------------------------- -------------------------
E------------------------- -------------------------

  SIm         MIm     LA            RE
E--------------------- -----------------
B------------7-8-7---- -----------5--7--
G--7--7-7-9--------9-- --6-6--6-7-------
D--------------------- -----------------
A--------------------- -----------------
E--------------------- -----------------

=1ª Parte=
  RE             SOL
  ÁNGEL, LA NIÑA DE LAS FLORES,
  LA                   RE
  LLENAS... LOS PRADOS DE COLORES,
  SIm            MIm       LA                RE
  NOS RODEAS CON TU BONDAD... Y CON TODO TU AMOR...
  RE              SOL
  ÁNGEL, ERES TAN DULCE Y BELLA,
  LA                  RE
  TIENES... EL BRILLO DE UNA ESTRELLA,
  SIm               MIm        LA                 RE
  SACAS... LO BUENO DE LA GENTE, CON EJEMPLOS DE AMOR...

LA             RE      LA           RE
  CON TU LLAVE MÁGICA... BUSCAS ESA FLOR...
FA#           SIm            MI                LA
  NOS DARÁS FELICIDAD Y EL CAMINO MÁS FÁCIL SERÁ...

  RE              SOL
  ÁNGEL, ESTRELLA DE LAS FLORES,
  LA                RE
  BUSCA... AQUELLOS SIETE COLORES...
  SIm               MIm         LA             RE
  QUE EN UNA FLOR ENCONTRARÁ... DANDO... FELICIDAD...


=Puente= (Punteo en Guitarra, aquí la canción sube 1/2 tono)

   MI            LA            SI              MI
E----------------9-9-------- ------------------------------
B--9-9---9-10-12-----12-10-- -------------9-10-12-12-10-9--
G--------------------------- --11-11---11------------------
D--------------------------- ------------------------------
A--------------------------- ------------------------------
E--------------------------- ------------------------------

  DO#m         FA#m       SI            MI
E------------------------- -----------------
B------------9-10-9------- -----------------
G--9-9--9-11--------11-9-- --8-8-8--9-11-9--
D------------------------- -----------------
A------------------------- -----------------
E------------------------- -----------------

=Parte Final=
SI             MI      SI           MI
  CON TU LLAVE MÁGICA... BUSCAS ESA FLOR...
SOL#          DO#m           FA#              SI
  NOS DARÁS FELICIDAD Y EL CAMINO MÁS FÁCIL SERÁ...

  MI              LA
  ÁNGEL, ESTRELLA DE LAS FLORES,
  SI                MI
  BUSCA... AQUELLOS SIETE COLORES...
  DO#m              FA#m         SI             MI
  QUE EN UNA FLOR ENCONTRARÁS... DANDO... FELICIDAD...
  MI              LA
  ÁNGEL, ERES TAN DULCE Y BELLA,
  SI                  MI
  TIENES... EL BRILLO DE UNA ESTRELLA,
  DO#m              FA#m         SI                LA
  SACAS... LO BUENO DE LA GENTE... CON EJEMPLOS DE AMOR...

   LA         MI
E--9---7---------
B--10--9--10--9--
G--9---9--11--9--
D-------------9--
A----------------
E----------------

---------------------------- FIN ----------------------------
  _______________________________________________
 |                                               |
 | Aquí te van algunas indicaciones básicas para |
 | tocar la canción:                             |
 |_______________________________________________|
 |                                               |
 | Para que el tema suene la raja te recomiendo  |
 | ejecutar el acorde y los cambios de  acorde   |
 | en el mismo momento en que aparecen,por eso   |
 | logré que la ubicación de cada acorde sea la  |
 | precisa, tal como puse los acordes sobre cada |
 | sílaba de verso y sobre cada punteo, así te   |
 | será más fácil ubicar el acento musical y     |
 | además, obtendrás melodía y armonía similares |
 | A LA versión original del *Capitán Memo* ,    |
 | disfrútala.                                   |
 |_______________________________________________|

 _______________________
|                       |
|       C L A V E       | CUERDAS de la GUITARRA:
| Universal - Americana |
|                       | E---> es Mi AGUDO (1 cuerda)
| DO  =============== C | B---> es Si       (2 cuerda)
| RE  =============== D | G---> es Sol      (3 cuerda)
| MI  =============== E | D---> es Re       (4 cuerda)
| FA  =============== F | A---> es La       (5 cuerda)
| Sol =============== G | E---> es Mi GRAVE (6 cuerda)
| LA  =============== A |
| SI  =============== B |
|_______________________|


 (Acorde)    (Cuerdas)
    |       E A D G B E  Los números corresponden al
    |       | | | | | |  traste de la guitarra donde
    |       | | | | | |  se pulsa la cuerda señalada,
    |       | | | | | |  la letra X significa que no
    |       | | | | | |  se pulsa la cuerda indicada.
    |       | | | | | |
    Do#m :  X 4 6 6 5 4  ( Do menor Sostenido )
    Re   :  X X 0 2 3 2  ( Re Mayor )
    Mi   :  0 2 2 1 0 0  ( Mi Mayor )
    Mim  :  0 2 2 0 0 0  ( Mi menor )
    Fa#  :  2 4 4 3 2 2  ( Fa Mayor Sostenido )
    Fa#m :  2 4 4 2 2 2  ( Fa menor Sostenido )
    Sol  :  3 2 0 0 0 3  ( Sol Mayor )
    La   :  X 0 2 2 2 0  ( La Mayor )
    Si   :  X 2 4 4 4 2  ( Si Mayor )
    Sim  :  X 2 4 4 3 2  ( Si menor )
  ____________________________________________________
 |                                                    |
 | Equivalencia de notas sostenidas con notas bemoles |
 |____________________________________________________|
 |                                                    |
 |  DO# = REb  <----> ( Do  sostenido  =  Re  bemol ) |
 |  RE# = MIb  <----> ( Re  sostenido  =  Mi  bemol ) |
 |  FA# = SOLb <----> ( Fa  sostenido  =  Sol bemol ) |
 | SOL# = LAb  <----> ( Sol sostenido  =  La  bemol ) |
 |  LA# = SIb  <----> ( La  sostenido  =  Re  bemol ) |
 |____________________________________________________|

 Hola mi nombre es Rodrigo, soy chileno y soy un baladista aficionado,
espero que les guste esta transcripción de tema, que puede darles un
poco de nostalgia por esa serie (http://monitos.polo-sur.cl/angel.htm)
 Los acordes están en su original tono. Por cualquier pregunta, mi correo
es rodrymicky@hotmail.com... Un saludo para mi compadre Maluto y un besito
para mi vida que se llama Karen, mi querida novia, te amo muchiiios.


         +EN MEMORIA DE MI HERMANITA ANDREA SUSANA MUÑOZ ALARCÓN+
                 (*Abril 20,1989 - Diciembre 10,2004+)
            *Que el Señor te tenga en su gloria hermanita mía*

                       *Que el Señor les Bendiga*

JUNIO, 2006                                         ...El último romántico
====================www.fotolog.com/sevendepedagogia======================
Versión 3 - Angel (Tablatura para guitarra (TAB))
Esta rola va dedicada al slash y a todos que ven la serie de angel 

 E:-----------------------------------------------------------------|
 B:-----------------------------------------------------------------|
 G:------------------7---5---4---4----------------------------------|
 D:----2---4---5---/-----------------7--5---5--4--2----4--5---------|
 A:----------------------------------------------------------3------|
 E:-----------------------------------------------------------------|
 

 E:-----------------------------------------------------------------|
 B:-----------------------------------------------------------------|
 G:-----------------7---5----4-4--/---11-12-------------------------|
 D:---2---4---5---/--------------------------10-----10----10/9------|
 A:-----------------------------------------------------------------|
 E:-----------------------------------------------------------------|


 E:----------------------------------------------------------------|
 B:----------------------------------------------------------------|
 G:----------------------------------------------------------------|
 D:--------4-----2----4------2----4/5------4----2---4/5--/--7--/10-|
 A:----2--------------------------------2--------------------------|
 E:----------------------------------------------------------------|


 E:----------------------------------------------------------------|
 B:----------------------------------------------------------------|
 G:-------------------------------7--------------------------------|
 D:----------9----10----9----7----------10---9----7---5----4-------|
 A:----------------------------------------------------------------|
 E:----------------------------------------------------------------|


 E:----------------------------------------------------------------|
 B:----------------------------------------------------------------|
 G:------------------7---5---4--4--/---11---12---------------------|
 D:---2----4---5--/--------------------------------10---10---10/9--|
 A:----------------------------------------------------------------|
 E:----------------------------------------------------------------|


 E:--------7-------------5------------3-----------2----------0-----|
 B:----------------------------------------------------------------|
 G:--------7-------------5------------3-----------2----------0-----|
 D:----------------------------------------------------------------|
 A:----------------------------------------------------------------|
 E:----------------------------------------------------------------|
es todo  espero que les (haiga ja ja) haya gustado nos vemos

El material contenido en esta página es para exclusivo uso privado y con propósito meramente educativo, se prohibe su reproducción y uso con fines comerciales