Akino Arai Macross

Acordes de la canción 'Akino Arai Macross' de Música de TV

Esta es una de las mejores canciones de toda la saga de Macross,
la transcripcion es de la vercion acapela, espero les guste.
Comentarios, dudas y criticas a mi correo.


||---------------------------------------------------------------------
||------9~~-9~--12-11-7~~~-----4-5-7~~~--------4-2-0---4-2~~-----------
||---6~~-------------------8-6-----------6~~-4----------------1~~~-----
||---------------------------------------------------------------------
||---------------------------------------------------------------------
||---------------------------------------------------------------------


||---------------------------------------------------------------------
||------9~~-9~--12-11-7~~~-----4-5-7~~~--------4-2-0---4-2~~~~---------
||---6~~-------------------8-6-----------6~~-4-------------------------
||---------------------------------------------------------------------
||---------------------------------------------------------------------
||---------------------------------------------------------------------


||---------------------------------------------------------------------
||------9~~-9~--12-11-7~~~-----4-5-7~~~--------4-2-0---4-2~~-----------
||---6~~-------------------8-6-----------6~~-4----------------1~~~-----
||---------------------------------------------------------------------
||---------------------------------------------------------------------
||---------------------------------------------------------------------


||---------------------------------------------------------------------
||------9~~-9~--12-11-7~~~-----4-5-7~~~--------4-2-0---4-2~~--2~~~~----
||---6~~-------------------8-6-----------6~~-4-------------------------
||---------------------------------------------------------------------
||---------------------------------------------------------------------
||---------------------------------------------------------------------


||---------------------------------------------------------------------
||--------9~~--7-9-12~~--14-12-----------9~~------------9~~------------
||---9-11----------------------9~~-----9-------9~~----9-----8~~--------
||----------------------------------11-------------11-----------11~~---
||---------------------------------------------------------------------
||---------------------------------------------------------------------


||---------------------------------------------------------------------
||----------------4~~--9~---14~~~--9~~--7-9-11~~--9--7-----9--9~~~-----
||--------9~--8-6---------------------------------------8--------------
||---9-11--------------------------------------------------------------
||---------------------------------------------------------------------
||---------------------------------------------------------------------


||---------------------------------------------------------------------
||------9~~-9~--12-11-7~~~-----4-5-7~~~--------4-2-0---4-2~~-----------
||---6~~-------------------8-6-----------6~~-4----------------1~~~-----
||---------------------------------------------------------------------
||---------------------------------------------------------------------
||---------------------------------------------------------------------


||---------------------------------------------------------------------
||------9~~-9~--12-11-7~~~-----4-5-7~~~--------4-2-0---4-2~~~~---------
||---6~~-------------------8-6-----------6~~-4-------------------------
||---------------------------------------------------------------------
||---------------------------------------------------------------------
||---------------------------------------------------------------------

El material contenido en esta página es para exclusivo uso privado y con propósito meramente educativo, se prohibe su reproducción y uso con fines comerciales