Sobrenatural

Tabs, letra y acordes de 'Sobrenatural' por Marcos Witt

Versiones disponibles: Tablatura para guitarra (TAB) - Letra y acordes - Tablatura para bajo (bass tab) - Letra y acordes - Letra y acordes - Letra y acordes - Tablatura para guitarra (TAB)

Hola!

Aqui estoy de nuevo ajjajaa..aki les entrego esta hermosa
cancion y el super solo neta que estos guitarristas estan
super padres..Mundo..ya no tienes a los mejores.. los mejores son
Cristo...Woww.. en la de ES aqui, es ahora, el duelo de guitars..
lo mejor!!..

pero bueno vamx a lo que vamx ajjaja ..esta cancion la vdd..esta
muy bonita y le quise añadir el solo.. las versiones que estan, son
de buena calidad..

Bueno como siempre les digo..para seguir el solo tienen que escucharlo.
ai estan las notas con las que se toca solo sigan su oido y con los
acordes se van guiando.

Cualquier duda mi correo es bggs15@hotmail.com

Sobrenatural

INTRO:  (Em)  G  D/F#  Em  C

Em    D   G   Em         D     G
Sobrenatural, eres Dios sin igual
Em          D      G            Cadd9
Dueño del cielo y mar sobrenatural
Em    D   G   Em           D    G
Sobrenatural, habitas la eternidad
Em       D     G            Cadd9
Eres el manantial sobrenatural

::CORO::
G          D/F#       Em
Dios en mi vida eres Dios
         Cadd9        G
De los cielos eres Dios
        D/F#       Em    Cadd9
De los mares eres Dios, Sobrenatural
G        D/F#        Em
  De la tierra eres Dios
       Cadd9       G
Mi sustento eres Dios
         D/F#        C/B    Cadd9
Siempre eterno eres Dios, Sobrenatural

SOLO:      Am    Em  G  D  Am   Em   D

E ------------------------------
A ------------------------------
D ------------------------------
G --------------14------s14-12--
B -s13-13-13-12---s17sd---------
e ------------------------------

E ----------------------------------------------
A ----------------------------------------------
D -12-14-----------------14-----------14-12-12--
G ------12-14-14^-12-12----12-14---11-----------
B ------------------------------12--------------
e ----------------------------------------------

E -----------------------------
A -14--------------------------
D ---12-14---------------------
G --------12-14----------------
B -------------12-15-15s17H----
e -----------------------------

E ---------------------------
A ---------------------------
D ---------------------------
G ---------------------------
B ---------17------17-17-----
e -14-15-14--17b19-----------

E -----------------------------
A -----------------------------
D -----------------------------
G -------------------------14--
B -17-17-----15--15-15---------
e ------14-15---------12-14---

E ---------------------------------
A ---------------------------------
D ---------------14--------14------
G -15-------14-12-----14-12--------
B ---14---15--------15-------------
e ------12--------------------s17--

s = slide
H = Armonico
b = bend
sd = slide down

Escuchenlo muy bien para que puedan sacarlo sale..!!

Em    D   G   Em         D     G
Sobrenatural, eres Dios sin igual
Em          D      G            Am
Dueño del cielo y mar sobrenatural
 G/B       Cadd9 G/B       Am   G/B     Cadd9
 sobrenatural,   sobrenatural,   sobrenatural

Em         D/F#        G
Dios en mi vida eres Dios
         Cadd9       G
De los cielos eres Dios
       D/F#        Em    Cadd9
De los mares eres Dios, Sobrenatural
G        D/F#        C/B
  De la tierra eres Dios
       C           G
Mi sustento eres Dios
         D/F#        Em    Cadd9
Siempre eterno eres Dios, Sobrenatural,

Em  D/F#   G     Em    D/F#   G        Em  D/F#   G   Cadd9
                 Sobre-natu--ral !!!

Bueno espero que lo puedan sacar..la vdd no esta muy dificil..solo
hay que oirlo..

Se les ama en el amor de Cristo

bggs15@hotmail.com

"Mundo ya no tienes a los mejores Guitarristas..
..Ahora somos de Dios."
ajajjajaja :P

JOrGe
Versión 2 - Sobrenatural (Letra y acordes)
Intro: G-D/F#-Em-C
Em   D/F# G  Em         D/F#   G
Sobrenatural eres Dios sin igual
Em   D/F#     G                     C
dueño del cielo y mar, sobrenatural
Em    D/F# G  Em           D/F#   G
Sobrenatural avitas  la eternidad
Em      D/F#   G                   C
Eres es el manantial, sobrenatural
Coro:
G          D/F#      Em            C             G
Dios de mi vida eres Dios, de los cielos eres Dios,
          D/F#      Em  C           G
de los mares eres Dios, sobrenatural
        D/F#      Em           C             G
De la tierra eres Dios, mi sustento eres Dios
          D/F#       G/B   C           G
siempre eterno eres Dios, sobrenatural
Em    D/F# G  Em         D/F#   G
Sobrenatural, eres Dios sin igual
Em         D/F#    G               C
dueño del cielo y mar, sobrenatural
Em        C   Em        C   Em            D
sobrenatural, sobrenatural, sobrenatural
Versión 3 - Sobrenatural (Tablatura para bajo (bass tab))
Esta es toda la estructura de la canción

Califiquen con honestidad, eso hace que los que colaboramos
nos esforcemos mas cada día xD

Cualquier duda me escriben al correo diego_jc7@hotmail.com

Intro
G------------------------------------------------------------------------
D------------------------------------------------------------------------
A--------------------------------------------------------3-3-3-3-3-3-3-3-
E--3-3-3-3-3-3-3-3---2-2-2-2-2-2-2-2---0-0-0-0-0-0-0-0-------------------


Estrofa (2 veces)
G--------------------------------------------
D--------------------------------------------
A----------------------------------3---------
E---0--2--3----0--2--3----0--2--3------------



Coro (4)
G------------------------------------------------------------------------
D------------------------------------------------------------------------
A--------------------------------------------------------3-3-3-3-3-3-3-3-
E--3-3-3-3-3-3-3-3---2-2-2-2-2-2-2-2---0-0-0-0-0-0-0-0-------------------


Solo de guitarra (2 veces)

G------------------------------------------------------------------------
D------------------------------------------------------------------------
A--------------------------------------5-5-5-5-5-5-5-5---5-5-5-5-5-5-5-5-
E--5-5-5-5-5-5-5-5---0-0-0-0-0-0-0-0-------------------------------------


Entra la voz con algunos instrumentos pero no el bajo

Cuando comienza a repetir sobrenatural
G------------------------------------------------------------------------
D------------------------------------------------------------------------
A----------------------------------------------------------------------3-
E--5--3--5----7--5--7----5--3--5s7--5----7--5--7----5--3--5----7--5--7---


Coro (hace una vuelta E - F# - G - C y luego igual que el primer coro)


la canción se repite hasta que llega a una parte en la que hace cambios
de acordes rapido y lo que hace es

G------------------------------------------------------------------------
D------------------------------------------------------------------------
A------------------------------------------------------------------------
E---3-3-3-3-2-2-2-2-0-0-0-0-0-0-0-0----3-3-3-3-2-2-2-2-0-0-0-0-0-0-0-0---


G------------------------------------------------------------------------
D------------------------------------------------------------------------
A-----------------------------------3------------------------------------
E--3-3-3-3-2-2-2-2-0-0-0-0-0-0-0-0---------------------------------------
Versión 4 - Sobrenatural (Letra y acordes)
hola! muy buena cancion y excelente produccion espero q sea de
bendicion a sus vidas

Intro: G - Dadd9/F# - Em - C

I
Em7  Dadd9/F#-G    Em7    Dadd9/F#    G
Sobre----natural, Eres Dios sin     igual
Em7      Dadd9/F#  G        C
Dueño del cielo y mar, Sobrenatural
Em7  Dadd9/F#-G    Em7    Dadd9/F#  G
Sobre----natural, Habitas la eternidad
Em7   Dadd9/F#  G        C
Eres el manantial, Sobrenatural

Coro:
  G      Dadd9/F#      Em
Dios de mi vida eres Dios
       C            G/B
De los cielos eres Dios
    Dadd9/F#       Em
De los mares eres Dios
C
Sobrenatural
G       Dadd9/F#   Em
De la tierra eres Dios
       C         G/B
Y su centro eres Dios
       Dadd9/F#     Em
Siempre eterno eres Dios
C
Sobrenatural

Solo: Am7 - Em7 - Gadd9 - Dadd9 - Am7 - Em7 - Dadd9

II
Em7  Dadd9/F#-G    Em7    Dadd9/F#    G
Sobre----natural, Eres Dios sin     igual
Em7      Dadd9/F#  G         Am
Dueño del cielo y mar, Sobrenatural
G/B           C   G/B          Am
     Sobrenatural,    Sobrenatural,
G/B             C
    Sobrenaturaaaal

Coro 2:
 Em      Dadd9/F#      G
Dios de mi vida eres Dios
       C            G/B
De los cielos eres Dios
    Dadd9/F#       Em
De los mares eres Dios
C
Sobrenatural
G       Dadd9/F#   Em
De la tierra eres Dios
       C         G/B
Y su centro eres Dios
       Dadd9/F#     Em
Siempre eterno eres Dios
C        Em-Dadd9/F#-G
Sobrenaturaaaal
 Em-Dadd9/F#-G
Sobrenaturaaaal

Fin: Em7 - Dadd9/F# - G - Am - C

El Dadd9/F# se hace asi E-2, A-0, D-0, G-2, B-3, E-0
(son las cuerdas de la guitarra y el traste)
y en el piano es bajo de F# y el acorde de Dadd9 (D - E - F# - A)
Bueno.. esto es todo espero que les guiste y que nuestro Dios
sobrenatural les bendiga..
Versión 5 - Sobrenatural (Letra y acordes)
Intro: G-D/F#-Em-C

Em   D/F# G  Em         D/F#   G
Sobrenatural eres Dios sin igual
Em   D/F#     G                     C
dueño del cielo y mar, sobrenatural
Em    D/F# G  Em           D/F#   G
Sobrenatural avitas  la eternidad
Em      D/F#   G                   C
Eres es el manantial, sobrenatural

Coro:

G          D/F#      Em7            C             G
Dios de mi vida eres Dios, de los cielos eres Dios,
          D/F#      Em7  C           G
de los mares eres Dios, sobrenatural
        D/F#      Em7           C             G
De la tierra eres Dios, mi sustento eres Dios
          D/F#       G/B   C
siempre eterno eres Dios, sobrenatural

Intermedio: Am  Em  G  D/F# Am  Em  D  D



Em    D/F# G  Em         D/F#   G
Sobrenatural, eres Dios sin igual
Em         D/F#    G     Am7
dueño del cielo y mar, sobrenatural
G/B        C     G/B        Am7 G/B             C
   sobrenatural, sobrenatural,     sobrenatural


Em         D/F#      G            C             G
Dios de mi vida eres Dios, de los cielos eres Dios,
          D/F#      Em  C           G
de los mares eres Dios, sobrenatural
        D/F#      Em           C             G
De la tierra eres Dios, mi sustento eres Dios
          D9/A       G/B   C           Em D/F# G//// C
siempre eterno eres Dios, sobrenatural
Versión 6 - Sobrenatural (Letra y acordes)
Intro: G - D/F# - Em7 - Cadd9


Verso 1:

G    D/F#   Cadd9
Sobrenatural
Em7       D/F#     Cadd9
Eres Dios sin Igual
G         D/F#      Cadd9
Dueño del Cielo y Mar
          Am   C
Sobrenatural


Verso 2:

G    D/F#   Cadd9
Sobrenatural
Em7       D/F#     Cadd9
Habitas la eternidad
G         D/F#      Cadd9
Eres el manantial
          Am   C
Sobrenatural


Coro:

G          D/F#          Em
Dios de mi vida eres Dios
       Cadd9           G
De los cielos eres Dios
       D/F#           Em
De los mares eres Dios
Cadd9        G
Sobrenatural
      D/F#            Em
De la tierra eres Dios
       Cadd9         G
Mi sustento eres Dios
        D/F#            Em
Siempre eterno eres Dios
Cadd9
Sobrenatural


Solo: G - D/F# - Em - Cadd9 x2


Verso 3:

G    D/F#   Cadd9
Sobrenatural
Em7       D/F#     Cadd9
Eres Dios sin Igual
G         D/F#      Cadd9
Dueño del Cielo y Mar
          Am   D/F#
Sobrenatural
          Am   D/F#
Sobrenatural
          Am   D/F#   Am   C
Sobrenatural


Coro:

G          D/F#          Em
Dios de mi vida eres Dios
       Cadd9           G
De los cielos eres Dios
       D/F#           Em
De los mares eres Dios
Cadd9        G
Sobrenatural
      D/F#            Em
De la tierra eres Dios
       Cadd9         G
Mi sustento eres Dios
        D/F#            Em
Siempre eterno eres Dios
Cadd9       G - D/F# - Em - Cadd9
Sobrenatural
G    D/F#  Em  Cadd9
Sobrenatural

Guitarra y voz repiten el coro para finalizar, con ciertos
arreglitos en piano.
Versión 7 - Sobrenatural (Tablatura para guitarra (TAB))
Hola... ktal, aqi les dejo la tablatura de la cancion
Sobrenatural de marcos witt... espero que les sea de mucha ayuda....
Bendiciones

INTRO:

e/---------------------------------------------------------------------/
B/-8-8-8-8-8-8-8-8--7-7-7-7-7-7-7-7--8-8-8-8-8-8-8-8--8-8-8-8-8-8-8-8--/
G/-7-7-7-7-7-7-7-7--7-7-7-7-7-7-7-7--7-7-7-7-7-7-7-7--5-5-5-5-5-5-5-5--/
D/-5-5-5-5-5-5-5-5--5-5-5-5-5-5-5-5--5-5-5-5-5-5-5-5--5-5-5-5-5-5-5-5--/
A/---------------------------------------------------------------------/
E/---------------------------------------------------------------------/

Sobrenatural
 B/-8-7---/
 G/-----7-/(x3)
Eres dios sin igual
 B/-8-7---/
 G/-----7-/(x3)
Dueño del cielo y mar
 B/-8-7---/
 G/-----7-/
Sobrenatural

CORO: son los mismos acorde que la introduccion

SOLO:

 e/----------------------------12-----/
 B/---8-10-10s12-12b-12b-12-10----8---/
 G/-7---------------------------------/

 e/--8-10s12-10-8---8-10-12-7-------/
 B/-7-7------------7----------9-7---/
 G/---------------------------------/

 e/-------7---14s15-14b-14-12-19-12----/
 B/-----8------------------------------/
 G/-7-9--------------------------------/

 e/---12-14-15-10---10-12-14----10--12p10--14p10--15p10--15s17---/
 B/-12------------10--------10----10-----10-----10-----10--------/

 Se vuelve a repetir el verso lero sin los arpegeos

 FINAL:

  Sobrenaturaaaaaaaaal......

 G/-9-9-9-9-7-7-7-7-----------------/
 D/-9-9-9-9-7-7-7-7-5-5-5-5-5-5-5-5-/
 A/-7-7-7-7-5-5-5-5-5-5-5-5-5-5-5-5-/
 E/-----------------3-3-3-3-3-3-3-3-/

 Sobrenaturaaaaaaaaaal.....

 G/-9-9-9-9-7-7-7-7-----------------/
 D/-9-9-9-9-7-7-7-7-5-5-5-5-5-5-5-5-/
 A/-7-7-7-7-5-5-5-5-5-5-5-5-5-5-5-5-/
 E/-----------------3-3-3-3-3-3-3-3-/

 B/--------------10-8-7-8-------------------/
 G/-9-9-9-9-7-7-7---------7-5-4-5-7-9-------/
 D/-9-9-9-9-7-7-----------------------------/
 A/-7-7-7-7-5-5-----------------------------/

El material contenido en esta página es para exclusivo uso privado y con propósito meramente educativo, se prohibe su reproducción y uso con fines comerciales