Toma tu lugar

Acordes de la canción 'Toma tu lugar' de Marcos Brunet

Versiones de esta canción: Tablatura para guitarra (TAB) - Acordes para piano o teclado (con notas) - Letra y acordes

Esta es la versión que va con oh tu fidelidad para mi es la mejor versión
esta muy padre de esta forma espero les ayude Por favor sigan apoyando
cualquier duda o aclaracion les dejo mi correo fenix-de_oro@hotmail.com

(Tono “D”)

Intro: /////D - G/////


E|---------------------------6-----------------------6----------
B|-------^6--^6--6-------^6----^5v3-3ñ---------^6-^6---^6v-3-6--
G|-2-4-2-----------2-4-2----------------2-4-2------------------2
D|--------------------------------------------------------------
A|--------------------------------------------------------------
E|--------------------------------------------------------------


E|--------------------------------------------------------------
B|-3/8-7ñ-8/10-7ñ--/7--7-------14--------15-------15/17---------
G|------------------------------------------------------14------
D|------------------------12-14----12-14----12-14---------------
A|--------------------------------------------------------------
E|--------------------------------------------------------------


E|-----------------17----------------------------17-------------
B|-15/^17--^17-^17-----^17v-15-15ñ-------^17-^17----^17v-15-17--
G|---------------------------------14-16------------------------
D|--------------------------------------------------------------
A|--------------------------------------------------------------
E|--------------------------------------------------------------


E|-------------------17-----------------------------------------
B|-----------^17-^17-----^17v-15-17ñ--17p16p15/14-15------------
G|-14-/14-16-----------------------------------------14-16h14ñ--
D|--------------------------------------------------------------
A|--------------------------------------------------------------
E|--------------------------------------------------------------


E|-----------------
B|-----------------
G|-----------------
D|-14-12-14/16-----
A|-----------------
E|-----------------



Verso1:


D                    A  Em                   Bm  A
Te preparamos un lugar  Para que vengas a reinar
D/F#                A5  Em                   Bm   A
Te preparamos un lugar  Para que puedas disfrutar




Pre Coro:


        G                            D/F#
Se apagan las luces que están sobre el hombre
Em                  A
Solo Tú mereces brillar
G            Em          A        D
No hay nadie más importante que Jesús



Coro:


                  A    Em               G           D
///Ven y toma tu lugar Ven y toma tu lugar Señor Jesús///



(Se repite el coro 3 veces tocando en 5tas pero la 3sera lleva
un arreglo parecido al intro para pasar al pre coro)



E|---------------------------2-----------------------5----------
B|-------^5--^5--5-------^5----^5v2-2ñ---------^5-^5---^5v-3-5--
G|-2-4-2-----------2-4-2----------------2-4-2------------------2
D|--------------------------------------------------------------
A|--------------------------------------------------------------
E|--------------------------------------------------------------

E|--------------------------------------------------------------
B|-3/8-7ñ-8/10-7ñ--/7--7-------14--------15-------15/17---------
G|------------------------------------------------------14-16ñ--
D|------------------------12-14----12-14----12-14---------------
A|--------------------------------------------------------------
E|--------------------------------------------------------------

G              D/F#                   Em                 A
Sol de justicia estrella de la mañana Solo Tú mereces brillar
G            Em          A        D
No hay nadie más importante que Jesús

(Se repite el coro otras 5 veces y en la 5ta vez hay otro
 arreglo igual al del intro)



E|--------------------------------------------------------------
B|-------------------------------------------------^17-^17------
G|-------^9-^9-^9-------^9-^9-^9v7-9------14-16-14--------------
D|-7-9-7----------7-9-7--------------7-7------------------------
A|--------------------------------------------------------------
E|--------------------------------------------------------------



E|-----17-------------------------------------------------------
B|-^17----17-15-17-15ñ--17p16p15/14-15--------------------------
G|-------------------------------------14--16-------------------
D|--------------------------------------------14-16-14--12/11-12
A|--------------------------------------------------------------
E|--------------------------------------------------------------


(Después de esta parte hay un puente después otras veces el coro
 pero con ritmo acustico)


  D                      A                      Em              G
///No dejaremos de cantar No dejaremos de adorar Hasta que tomes//


                           (FIN!!!)


                                                     TABS BY: YOD
Versión 2 - Toma tu lugar (Acordes para piano o teclado (con notas))
--Jair--


Intro:
Mano derecha(Tonos)
Mano Izquierda (Acordes)

Mano derecha:   D E F# A G F# E E A G F# D E   D  C#
Mano Izquierda:     D           A          Em  Bm-A

Mano derecha:   C# D E F# A G F# E E A G F# D E   D  C#
Mano Izquierda:        D           A          Em  Bm-A


Nota:Hagan arpegio a los acordes.



Verso:
D                     A
//Te preparamos un lugar
Em                    Bm - A
Para que vengas a reinar
D/F#                A
Te preparamos un lugar
Em                    Bm - A
Para que puedas disfrutar//


Pre-coro:
        G                             D/F#
Se apagan las luces que están sobre el hombre
Em                 A
Solo Tú mereces brillar
G            Em          A         D
No hay nadie más importante que Jesús


Coro:
                 A
// Ven y toma tu lugar
Em               G
Ven y toma tu lugar
          D
Señor Jesús //


Puente:
     Bm          A         G
// Porque Tú eres bueno Señor
     Bm   A               Em
Y tu misericordia es sin fin //
     Bm           A      D/F#-G-A
Porque Tú eres el rey por siempre


Intro:
Verso:
Pre-coro:
Coro:
                 A
//// Ven y toma tu lugar
Em               G
Ven y toma tu lugar
          D
Señor Jesús ////
Intro:


Nota: Bien, asi es como nosotros la tocamos, pero cada quien le da su estilo,
el coro la repiten las veces que sean, y ya cuando vayan a terminar la cancion
tocan el intro cuando se esta cantado el coro :D



Son practicamente los acordesque lleva
ya cada quien le da su arpegio en cada parte de la cancion
Espero y les sirva.
Alguna duda escribanme a mi correo jair_delf@hotmail.com
"Iglesia de Dios en México" Dolores Hidalgo, Gto.

Bendiciones..!!!
Versión 3 - Toma tu lugar (Letra y acordes)
D                    A
Te preparamos un lugar
Em                    Bm - A
Para que vengas a reinar
D/F#                A
Te preparamos un lugar
Em                    Bm - A
Para que puedas disfrutar


        G                             D/F#
Se apagan las luces que están sobre el hombre
Em                 A
Solo Tú mereces brillar
G            Em          A         D
No hay nadie más importante que Jesús


                 A
/ Ven y toma tu lugar
Em               G
Ven y toma tu lugar
          D
Señor Jesús /


     Bm          A         G
/ Porque Tú eres bueno Señor
     Bm   A               Em
Y tu misericordia es sin fin /
     Bm           A      D/F#  G   A
Porque Tú eres el rey por siempre

El material contenido en esta página es para exclusivo uso privado y con propósito meramente educativo, se prohibe su reproducción y uso con fines comerciales