Todo pertenece a ti

Acordes de la canción 'Todo pertenece a ti' de Marcos Brunet

Versiones de esta canción: Tablatura para bajo (bass tab) - Letra y acordes - Tablatura para guitarra (TAB)

Intro
G|------------------------------------
D|------------------------------------
A|--------------------2(8)-4(8)-5(16)-
E|-2(8)-0(8)-2(8)-7(8)----------------

G|-------------------------------------------------------------|
D|-------------------------------------------------------------|
A|--------------------2(8)-4(8)-5(16)-7(16)--------------------|
E|-2(8)-0(8)-2(8)-7(8)---------------------2-2--2(4)--2-2--2(4)|

Verso
G|-------------------------------------------|
D|-------------------------------------------| ×2
A|----------------------4-4--4(4)--5-5-5-5(4)|
E|-2-2--2(4)--0-0--0(4)----------------------|


E         F#             D
Me alegraré en mi herencia
E       F#              D
Y danzaré en tu presencia.

Coro
          D       E            F#     G#
Todo pertenece a ti, todo pertenece a ti
          D            E            F#    G#
Y nada jamas se escapará de tu control//


Intro
G|------------------------------------------
D|------------------------------------------
A|-7-9-7---7-9-7---7(8)-7-9-7---7-9-7-------
E|-------9-------9------------9-------9-7(8)

G|-----------------|
D|-----------------|
A|-2(8)-4(8)-5(16)-|
E|-----------------|

VersoII
G|-------------------------------------------|
D|-------------------------------------------| ×2
A|----------------------4-4--4(4)--5-5-5-5(4)|
E|-2-2--2(4)--0-0--0(4)----------------------|

E         F#             D
Me alegraré en mi herencia
E       F#              D
Y danzaré en tu presencia.

Coro
          D       E            F#     G#
Todo pertenece a ti, todo pertenece a ti
          D            E            F#    G#   D
Y nada jamas se escapará de tu control//

Puente
D                 A
La tierra es tuya, también es mía
E                    B/Eb
Y yo disfruto de mi herencia cada día
D                 A
La tierra es tuya, también es mía
E                     B/Eb
Y yo me alegro en tu presencia todo el día//

D          A       E      Eb
Ooh      oooh      oh         ×4


D         C#       E      Eb
Ooh      oooh      oh //


La canción termina con el coro.
Versión 2 - Todo pertenece a ti (Letra y acordes)
FA#m                    MI
De mi papa es la tierra y su plenitud
 DO#m                   RE
El mundo y todo lo que en El hay
FA#m                    MI
Donde pise la planta de mis pies
 DO#m                   RE
Tu palabra activare y la tierra cambiara
MI        FA#m          RE
Me alegrare en mi herencia
 MI      FA#m       RE
Y danzare en tu presencia
 RE              MI       RE          MI
Todo pertenece a ti, Todo pertenece a ti
FA#m      MI             D           E
Y nada jamás se escapara de tu control

 A                       E
La tierra es tuya, también es mía
 D                E
Y yo disfruto mi herencia todo el día
 A                E
La tierra es tuya, también es mía
 D                   E
Y yo me alegro en tu presencia todo el día
Versión 3 - Todo pertenece a ti (Tablatura para guitarra (TAB))
hola soy matias ariel medina de la iglesia bautista de tablada
subi esta tablatura del hermoso cd de marcos brunet hogar dulce hogar
bendisiones


intro;FA#m  MI FA#m SI SI DO# RE FA#m  MI FA#m SI SI DO# RE MI

 FA#m               MI                  FA#m            SI
-------------------------------------------------------------17-19-17---e
--17h19-17h19-17----------------------17h19-17h19-17-------19--------19-b
-----------------18-16----16h18-16-------------------18-16--------------g -
-----------------------19----------19----------------------------------d
------------------------------------------------------------------------a


SI                                DO#  RE
---------------------------------------------------------------e
--17h19-17h19-17--------------------------------------17-----------b
-----------------18-16----16h18-16--------------16-17---------------g -
-----------------------19----------19--16-17-18-----------------------------d
-----------------------------------------


FA#m                MI                 FA#m            SI
-------------------------------------------------------------17-19-17---e
--17h19-17h19-17----------------------17h19-17h19-17-------19--------19-b
-----------------18-16----16h18-16-------------------18-16--------------g -
-----------------------19----------19----------------------------------d
------------------------------------------------------------------------a


SI                   DO#            RE                MI                FA#m
---------------------------------------------------12-------12-14-17-14-17---e
--17h19-17h19-17----------------------------12--14---12--14------------------b
-----------------18-16----16h18-16----13-14------------------------g -
-----------------------19----------19--------------------------------d
-----------------------------------------

FA#m                      MI/SOL#
de mi papa es la tierra y su plenitud
    DO#m               RE
el mundo y todo lo que hay
FA#m                          MI/SOL#
y convertite la planta de mis pies
             DO#m                 RE
tu palabRa vivare y la tierra cambiara

 MI/SOL#     FA#m              RE
y me alegrare en tu ti prerencia
 MI/SOL#  FA#m              RE     MI/SOL#
y danzaAAAA re en tu precensia

               RE  MI/SOL#            FA#m  MI/SOL#
//todo pertenece a  ti,   todo pertenece a   ti
            RE        MI/SOL#        FA#m   MI/SOL#
ni nada  jamas se escapara de tu control //

RE
     MI papa
 RE                  LA            MI/SOL#               SI
 la tierra es tuya tambien es mia y yo  desfruto mi herencia todo el dia
RE                  LA            MI/SOL#               SI
 la tierra es tuya tambien es mia y yo me alegro en tu precensia todo el dia

RE            LA            MI/SOL#        SI
hoooooooo hoooooo hoooooh ohoooho hohoh hohoh

RE            LA            MI/SOL#
hoooooooo hoooooo hoooooh ohoooho hohoh hohoh

face matias ariel medinas

cooreo  matias_medinas@hotmail.com

El material contenido en esta página es para exclusivo uso privado y con propósito meramente educativo, se prohibe su reproducción y uso con fines comerciales