Sabor A Mi

Tabs, letra y acordes de 'Sabor A Mi' por Luis Miguel

Versiones disponibles: Tablatura para guitarra (TAB) - Tablatura para guitarra (TAB) - Letra y acordes - Letra y acordes - Letra y acordes - Tablatura para guitarra (TAB)

esto es la guitarra de el principio

E-------------------10h11/13-13--11-10----13-11-10----13-11-13-----
B----------10-11-13--------------------13----------13--------------
G-12-12-12---------------------------------------------------------
D------------------------------------------------------------------
A------------------------------------------------------------------
E------------------------------------------------------------------

E-11-11h13p11-11\10-10-10\8----8-------8-------8-------8-------8---
B---------------------------11---10-11---10-11---10-11---10/11-----
G------------------------------------------------------------------
D------------------------------------------------------------------
A------------------------------------------------------------------
E------------------------------------------------------------------

E-----------------------10h11p11-------10------------------10------
B-11-10----------10-11-----------11-13-------------8-10/11---------
G-------12-11-12--------------------------7-8-10-------------------
D------------------------------------------------------------------
A------------------------------------------------------------------
E------------------------------------------------------------------

E-8-8--6-6--5-5--3-5----3-5------------4h5p4--3-3------------------
B---------------------6------6--6-5-6------------------------------
G------------------------------------------------------------------
D------------------------------------------------------------------
A------------------------------------------------------------------
E------------------------------------------------------------------

luego a media cancion hay otra parte en la guitarra que va asi

E-10-11-13-11-10----12--------10--10--8-10-11-10-8--8--------8---8-
B----------------13-------------13----------------11-----------11--
G---------------------13-11/12-----------------------10-9/10-------
D------------------------------------------------------------------
A------------------------------------------------------------------
E------------------------------------------------------------------
Versión 2 - Sabor A Mi (Tablatura para guitarra (TAB))
Esta canción es la melodía.  Como si fuera la letra de la
canción pero tocada.

Empieza así:

1.          disfrutamos       nuestras almas      tanto asi
  Tanto tiempo        de este amor      se acercaron
E]-----1---|---------|-------|---------|---------|-------|
B]-3-4---4-|-3-1-3---|-3-1-3-|-1-3-4-3-|-1---1---|-1---1-|
G]---------|-------0-|-------|---------|---3-----|---3---|
D]---------|---------|-------|---------|-------3-|-------|
2.          mi presencia en   bastaría con        conversar
 Si negaras          tu vivir          abrazarte y


1.          tu sabor          vas también
  que yo guardo     pero tu lle        sabor a mi
                                       ↓↓↓↓↓↓↓↓↓
E]---------|-------|---------|--------|---------|
B]-----1---|-------|---------|--------|---------|← Esta parte
G]-2-3---3-|-2-0-3-|-0-2-3-2-|-0---2--|---2---0-|← cambia
D]---------|-------|---------|---3----|-3---3---|
                                        ↑↑↑↑↑↑↑↑↑
  tanta vida        que por fuerza     sabor a mi
2.            yo te di          tienes ya

Cuando se toca 'sabor a mi'
la segunda vez, la melodía cambia a

  sabor a mi
E]---------|
B]---3-----|
G]-------3-|
D]-3---3---|
_______________________________________________________________

De ahí sigue esto y se repite una vez:
            ser tu dueño        yo no tengo
  No pretendo         no soy nada         vanidad
E]---------|---------|---------|---------|-------|
B]-1---1---|-1---1---|-3---1---|-3---1---|-3---1-|
G]---3---1-|---3---1-|---3---3-|---3---3-|---3---|
D]---------|---------|---------|---------|-------|

            doy lo bueno        que otra cosa
  De mi vida          soy tan pobre       puedo dar
E]---------|---------|---------|---------|-------|
B]-------1-|-------3-|-------3-|-1-3-4-3-|-4-3-1-|
G]-0-2-3---|-0-2-3---|-0-2-3---|---------|-------|
D]---------|---------|---------|---------|-------|

          mas de mil años     yo no se si       la eternidad
  Pasaran             muchos mas        tenga amor
E]-----1~|-----------|-------|---------|-------|-1-------|
B]-3-4---|-4-3-1-3---|-4-3-1-|-1-3-4-3-|-1---1-|---3---1-|
G]-------|---------0-|-------|---------|---3---|-----3---|
D]-------|-----------|-------|---------|-------|---------|

            como aquí                  sabor a mi
  pero aya tal      en tus brazos llevaras
E]---------|-------|---------|--------|---------|
B]-----1---|-------|---------|--------|---3-----|
G]-2-3---3-|-2-0-3-|-0-2-3-2-|-0---2--|-------3-|
D]---------|-------|---------|---3----|-3---3---|

Espero y les aya gustado.  Si tienen algún comentario o sugerencia
escríbanme a mi e-mail, epdphx@yahoo.com.
Aprovecho para mandar saludos a:
Mi familia tanto en México como en los USA
Y a:
Timoteo- El que me hizo componer la melodía
Miguel- Mi 'maestro' de música
Y mis compañeros de más allegados:
Laurita, Melina, Erika, Ángel y Rodolfo
Versión 3 - Sabor A Mi (Letra y acordes)
     e b g d a e
Edis = 4 3 4 3 0 0
E/R  = 0 2 1 2 2 0 
E7/D#= 0 3 1 0 2 0

E      Edim         F#m        
Tanto tiempo disfrutamos 
Am      B7
este amor
                       E   FA#m 
nuestras almas se acercaron
         G#m  Gm
tanto así
                  F#m
que yo guardo tu sabor
                   B7
pero tu llevas también 
E         E/D  E
sabor a mi    

(son las mismas notas)

SI negaras MI prescencia 
en tu vivir
bastaría con abrazarte y
conversar
tanta vida yo te dí
que por fuerza tienes ya
sabor a mi

      Bm7  E7        Bm7 E    
No pretendo ser tu dueño
        A          E7/D#
no soy nada, yo no tengo 
     A
vanidad

     Bm7  E7        Bm7 E7
De mi vida doy lo bueno
        A           
soy tan pobre, que otra
E7/D#       A
cosa puedo dar

(Son las mismas notas del principio)

Pasaran mas de mil años
mucho más
yo no sé si tenga amor la eternidad
pero allá tal como aquí
en la boca llevaras
sabor a mi.
Versión 4 - Sabor A Mi (Letra y acordes)
Gracias por entrar a esta pagina.
Antes que nada le dedico esta cancion
(como siempre) a DULCE YADIRA 


G          E7           Am         Cm  
   Tanto tiempo disfrutamos este amor
               D7           G         Gdim
   Nuestras almas se acercaron tanto así
                        Am
   Que yo guardo tu sabor
                        D7            G
   Pero tú llevas también sabor a mí.

      E7            Am             Cm
Si negaras mi presencia en tu vivir
        D7          G             Gdim
Bastaría con abrazarte y conversar
                    Am
Tanta vida yo te di
                           D7        G
Que por fuerza llevas ya sabor a mí.

        Dm             G7
No pretendo ser tu dueño 
           C          G7         C                       
No soy nada yo no tengo vanidad
        A7        
De mi vida doy lo bueno
             D              C           D
Soy tan pobre que otra cosa puedo dar.

     E7               Am           Cm
Pasarán mas de mil años muchos más
       D7            G          Gdim
Yo no sé si tenga amor la eternidad
                      Am
Pero alla tal como aquí
                 D7            G
En la boca llevarás sabor a mí. 

        Dm             G7
No pretendo ser tu dueño 
           C          G7         C                       
No soy nada yo no tengo vanidad
        A7        
De mi vida doy lo bueno
             D              C           D
Soy tan pobre que otra cosa puedo dar.

     E7               Am           Cm
Pasarán mas de mil años muchos más
       D7            G          Gdim
Yo no sé si tenga amor la eternidad
                      Am
Pero alla tal como aquí
                 D7            G
En la boca llevarás sabor a mí.
Versión 5 - Sabor A Mi (Letra y acordes)
A#      G7          Cm
TANTO TIEMPO DISFRUTAMOS
        G#7
ESTE AMOR
                      A#
NUESTRAS ALMAS SE ACERCARON
Cm       Dm
TANTO ASÍ
      C#m            Cm
QUE YO GUARDO TU SABOR
      F7
PERO TÚ LLEVAS TAMBIÉN
       A#
SABOR A MÍ.

Dm G7            Cm
SI NEGARAS MI PRESENCIA
          G#7
EN TU VIVIR
            A#
BASTARÍA CON ABRAZARTE Y 
Cm     Dm
CONVERSAR
       C#m      Cm
TANTA VIDA YO TE DI
                  F7
QUE POR FUERZA TIENES YA
       A#      D#m-A#
SABOR A MÍ-I.

       Fm             A#7
NO PRETENDO-O
        Fm            A#7
SER TU DUEÑO
      D#
NO SOY NADA
        Cdim(4ta 4)  D#
YO NO TENGO VANIDAD,

     Gm      C7
DE MI VIDA
     Gm      C7
DOY LO BUENO
      Cm
SOY TAN POBRE

      G7           Cm
QUÉ OTRA COSA PUEDO DAR.

       G7            Cm
PASARÁN MÁS DE MIL AÑOS
      G#7
MUCHOS MÁS 
                 A#
YO NO SÉ SI TENGA AMOR
Cm      Dm
LA ETERNIDAD
      C#m           Cm
PERO ALLÁ TAL COMO AQUÍ
            F7
EN LA BOCA LLEVARÁS
            A#      (D#m-A# Final)
SABOR A MÍ-I.


NO PRETENDO...
Versión 6 - Sabor A Mi (Tablatura para guitarra (TAB))
Bueno chicos las tablaturas son de nuestro compañero Alonso
pero le faltaba la letra y los acordes y aquí están:

Luis Miguel - Sabor a mi

Acordes:                    Armonicos:
 Bm7     E  Adim C#m Cm  F#7
e-2- -2- -0- -0- -4- -3- -2-     (12)
B-3- -0- -0- -2- -5- -4- -2-
G-0- -2- -1- -1- -6- -5- -3-
D-4- -0- -2- -2- -6- -5- -2-
A-2- -2- -2- -0- -4- -3- -4-
E-2- -0- -0- -0- -4- -3- -2-

Intro:
                              Bm7                      E
E-------------------10h11/13-13--11-10----13-11-10----13-11-13-----
B----------10-11-13--------------------13----------13--------------
G-12-12-12---------------------------------------------------------
D------------------------------------------------------------------
A------------------------------------------------------------------
E------------------------------------------------------------------
                          Adim          Bm7             C#m
E-11-11h13p11-1110-10-108----8-------8-------8-------8-------8---
B---------------------------11---10-11---10-11---10-11---10/11-----
G------------------------------------------------------------------
D------------------------------------------------------------------
A------------------------------------------------------------------
E------------------------------------------------------------------
  C#m        Cm         Bm7                                 E
E-----------------------10h11p11-------10------------------10------
B-11-10----------10-11-----------11-13-------------8-10/11---------
G-------12-11-12--------------------------7-8-10-------------------
D------------------------------------------------------------------
A------------------------------------------------------------------
E------------------------------------------------------------------
                      Adim
E-8-8--6-6--5-5--3-5----3-5------------4h5p4--3-3------------------
B---------------------6------6--6-5-6------------------------------
G------------------------------------------------------------------
D------------------------------------------------------------------
A------------------------------------------------------------------
E------------------------------------------------------------------

F#7            Bm7
   Tanto tiempo disfrutamos de este amor
 E                   Adim     Bm7      C#m
   Nuestras almas se acercaron tanto asi
    C#m -- Cm -- Bm7
   Que yo guardo tu sabor
                    E
   Pero tu llevas también
Adim
   Sabor a mi

   Si negaras mi presencia en tu exisir
   Bastaria con abrasarte y conversar
   Tanta vida yo te di
   Que por fuerza tienes ya
   sabor a mi


Coro:
   Em      A7     Em      A7       Bm7     C#m       F#7
No pretendo   Ser tu dueño   no soy nada yo no tengo vanidad
De mi vida    doy lo bueno   soy tan pobre que otra cosa puedo dar

               Bm7                E
Pasaran mas de mil  años mucho mas
                   Adim   Bm7    C#m
Yo no se si tenga amor  la eternidad
     C#m-Cm-Bm7
Pero halla tal como aquí
           E
En la boca llevaras
           Adim
sabor a mi

Luego a media cancion hay otra parte en la guitarra que va asi

F#7      Bm7                 E               Adim             Bm7
E-10-11-13-11-10----12--------10--10--8-10-11-10-8--8--------8---8-
B----------------13-------------13----------------11-----------11--
G---------------------13-11/12-----------------------10-9/10-------
D------------------------------------------------------------------
A------------------------------------------------------------------
E------------------------------------------------------------------
Coro:
   Em      A7     Em      A7       Bm7      C#m       F#7
No pretendo   Ser tu dueño   no soy nada yo no tengo vanidad
De mi vida    doy lo bueno   soy tan pobre que otra cosa puedo dar

               Bm7                E
Pasaran mas de mil  años mucho mas
                     Adim          Bm7
Yo no se si tenga amor  la eternidad

                        C#m
Pero halla tal como aquí
                 C#m-Cm-Bm7
En la boca llevaras
E          Adim
sabor a mi

                              Bm7                     E
E-------------------10h11/13-13--11-10----13-11-10----13-11-13-----
B----------10-11-13--------------------13----------13--------------
G-12-12-12---------------------------------------------------------
D------------------------------------------------------------------
A------------------------------------------------------------------
E------------------------------------------------------------------

                         Adim
E-11-11h13p11-1110-10-108---(12)
B---------------------------(12)
G---------------------------(12)
D---------------------------(12)
A---------------------------(12)
E---------------------------(12)

El material contenido en esta página es para exclusivo uso privado y con propósito meramente educativo, se prohibe su reproducción y uso con fines comerciales