La Bikina

Tabs, letra y acordes de 'La Bikina' por Luis Miguel

Versiones disponibles: Tablatura para guitarra (TAB) - Tablatura para guitarra (TAB) - Tablatura para guitarra (TAB) - Letra y acordes - Letra y acordes - Letra y acordes - Acordes para piano o teclado (con notas) - Acordes para piano o teclado (con notas)

esta es una version instrumental espero que les guste

e-----3-2-5-3-2-0---2-0-------2-0---2-0---2---------------------------
b---3-------------3---------2-----3-----3---3-1-----------0-0-0-2-0-2-
g-2-----------------------3-----------------------0---0-2-------------
d-----0-----0-------4---4-----------------------2---4-----------------
a-------------------------------2-----2-------0-----------------------
e-------------------------2-------------------------------3-----2-----

e-------------2-0---2-0---2-0---2-0---0----------5-3-2-5-3-2-0---2-0-3
b-3---------------3-----3-----3-----3--------------------------3------
g----------------------------------------------2----------------------
d-----0-4-0----------------------------------------0-----0------------
a-2-4-------2-------------------------------0--------------------4----
e-------------0-----------0-----------0-2-3---------------------------

e-----2-0---2-0---2-----------------------------0-2-3----2-0---2-0----
b---2-----3-----3---3-1-----------0-0-0-2-0-2-3--------------3-----3--
g-3-----------------------0---0-2-------------------------------------
d-----------------------2---4-----------------------------------------
a-------2-------------0-----------------------2----------0------------
e-2-----------0-------------------3-----2-----------3-----------------

e-0-----0----------------------0----0----1----1-1-1-3-1-3-5---------
b---3-2---3-2-3-----------3---------1--------------------------3----
g-----------------2-------3----3----0----2---------------------3----
d-------------0-4---0-2-4----------------0----------------3---------
a-0----------------------------3----0---------------3---------------
e-------------------------3-------------------3----------------3----

e-0----0----1-------------------0------------3-2-5-3-2-0---2-0------
b------1---------3-3-3----3-2-3------------3-------------3----------
g-3----0----2----------------------------2--------------------------
d-----------0--------------------------------0-----0----------------
a-3----0---------2--------------------0--------------------4---4----
e-------------------------0-----0-2-3-------------------------------

e-----2-0---2-0---2-----------------------------0-3-3-------------
b---2-----3-----3---3-1-----------0-0-0-2-2-0-3-------------------
g-3-----------------------0---0-2---------------------------------
d-----------------------2---4-------------------------------------
a-------2-----2-------0-----------------------2-------------------
e-2-------------------------------3-----2-----------3-------------

e-2-0---2-0---0-----0-------------2----
b-----3-----3---3-2---3-2-3-------2----
g-----------------------------2---2----
d-0-----------------------0-4---0------
a-------------0------------------------
e--------------------------------------

la verdad esta muy buena solo echenle oido
nos vemos en la k sigue te amo muzy
Versión 2 - La Bikina (Tablatura para guitarra (TAB))
E S T R O F A S :

Solitaria camina la bikina...

e[---10-8-7--10-8-7---------7----8-
B[---------------------10-8---10----
G[-7---------------------------------

La gente se pone a murmurar...

e[-7------7--------------
B[---10-8---10-8--10-8---
G[---------------------10-

Dicen que tiene una pena...

e[-----------------
B[-------7--7-8----
G[-9-9-9--9--------

Dicen que tiene una pena que la hace llorar

e[-7-----7-----7------7----------
B[--10-8--10-8---10-8---10-8-10-
G[----------------------------------

Altanera preciosa y orgullosa...

e[---10-8-7--10-8-7---------7----8-
B[---------------------10-8---10----
G[-7---------------------------------

No permite la quieran consolar...

e[-7------7--------------
B[---10-8---10-8--10-8---
G[---------------------10-

Pasa luciendo su real majestad...

e[------------------7-8-
B[-------7---7-8-10-----
G[-9-9-9---9------------

Pasa camina y nos mira sin vernos jamas...

e[-7------7----------------------------
B[---10-8---10-8--10-8-7--10-8-7-8-
G[-------------------------------------

C O R O :

La Bi - ki - na...     Tiene pena y dolor...

e[------------         e[-------------7-----
B[---7--7--8--         B[-8-8-10-8-10-------
G[-9----------         G[-------------------

La Bi - ki - na...     No conoce el amor...

e[------------         e[--------------------
B[---7--7--8--         B[------------7-------
G[-9----------         G[-9-9-9--8-9---------

Altanera preciosa y orgullosa...

e[---10-8-7--10-8-7---------7----8-
B[---------------------10-8---10----
G[-7---------------------------------

No permite la quieran consolar...

e[-7------7--------------
B[---10-8---10-8--10-8---
G[---------------------10-

Dicen que alguien ya vino y se fue...

e[------------------7-8-
B[-------7---7-8-10-----
G[-9-9-9---9------------

Dicen que pasa las noches llorando por el...

e[-7------7----------------------------
B[---10-8---10-8--10-8-7--10-8-7-8-
G[-------------------------------------

C O R O :

La Bi - ki - na...     Tiene pena y dolor...

e[------------         e[-------------7-----
B[---7--7--8--         B[-8-8-10-8-10-------
G[-9----------         G[-------------------

La Bi - ki - na...     No conoce el amor...

e[------------         e[--------------------
B[---7--7--8--         B[------------7-------
G[-9----------         G[-9-9-9--8-9---------

Altanera preciosa y orgullosa...

e[---10-8-7--10-8-7---------7----8-
B[---------------------10-8---10----
G[-7---------------------------------

No permite la quieran consolar...

e[-7------7--------------
B[---10-8---10-8--10-8---
G[---------------------10-

Dicen que alguien ya vino y se fue...

e[------------------7-8-
B[-------7---7-8-10-----
G[-9-9-9---9------------

Dicen que pasa las noches llorando por el...

e[-7------7----------------------------
B[---10-8---10-8--10-8-7--10-8-7-8-
G[-------------------------------------

Dicen que pasa las noches llorando por el...

e[-7------7----------------------------
B[---10-8---10-8--10-8-7--10-8-7-8-
G[-------------------------------------

Dicen que pasa las noches llorando por el...

e[-7------7----------------------------
B[---10-8---10-8--10-8-7--10-8-7-8-
G[-------------------------------------
Versión 3 - La Bikina (Tablatura para guitarra (TAB))
Esta es mi versión de esta canción, está transportada
a Mi (E) y sacada en las 3 primeras cuerdas (e, B, G)
espero que sea de su agrado. 


E S T R O F A S :

Solitaria camina la bikina... / Altanera preciosa y orgullosa...

e[---12-10-9--12-10-9--------9----10-
B[---------------------12-10---12----
G[-9---------------------------------

La gente se pone a murmurar... / No permite que la quieran consolar...
                                 La gente se pone a murmurar...
e[-9------9------9------
B[--12-10--12-10--10----
G[-------------------12-

Dicen que tiene una pena... / Pasa luciendo su real majestad...
                              Dicen que alguien ya vino y se fué...
e[---------------------     e[---------------------9-10-      
B[---------9---9-10-10-     B[---------9---9-10-12------   
G[-11-11-11--11--------     G[-11-11-11--11-------------

Dicen que tiene una pena que la hace llorar... / Pasa camina y los mira sin ver hacia atrás...
                                                 Dicen que pasa la vida soñando con él...
e[-9------9------9-------9----------           e[-9------9----------------------------
B[--12-10--12-10---12-10---12-10-12-           B[---12-10--12-10--12-10-9--12-10-9-10-
G[----------------------------------           G[-------------------------------------

C O R O :

La Bi - ki - na...     Tiene pena y dolor...

e[------------         e[-8-8-8----8--10-
B[---10-10-11-         B[-------10-------
G[-12---------         G[----------------

La Bi - ki - na...     No conoce el amor...

e[------------         e[--------------------
B[---10-10-11-         B[-----------------10-
G[-12---------         G[-12-12-12--11-12----
Versión 4 - La Bikina (Letra y acordes)
 intro: G Bb G C B7 Em Cm G Em Am D7 G

           G                 B7
      Solitaria, camina la Bikina,
         Em                    Dm7  G7     
      la gente se pone a murmurar.
       C         B7       Em
      Dicen que tiene una pena, 
       A7
      dicen que tiene una pena 
                      D7
      que le hace llorar. 


           G                    B7
      Altanera, preciosa y orgullosa 
            Em                   Dm7  G7
      no permite la quieran consolar 
       C      B7        Em        Cm
      pasa luciendo su real majestad, 
       G       Em         Am       D7        G     
      pasa y camina y los mira sin verlos jamás. 


      Cm F7 Dm Gm
      La Bi-ki-na 
    Cm      F7       Bb
      tiene pena y dolor 
      Cm F7 Dm Gm
      La Bi-ki-na 
    A7               D7
      no conoce el amor. 


           G                    B7
      Altanera, preciosa y orgullosa 
            Em                   Dm7 G7
      no permite la quieran consolar 
       C         B7        Em         Cm
      Dicen que alguien ya vino y se fue, 
       G        Em       Am        D7        G
      dicen que pasa las noches llorando por él. 


     'INTERLUDIO'

      Cm F7 Dm Gm
      La Bi-ki-na 
    Cm      F7       Bb
      tiene pena y dolor 
      Cm F7 Dm Gm
      La Bi-ki-na 
    A7               D7
      no conoce el amor 

           G                    B7
      Altanera, preciosa y orgullosa 
            Em                   Dm7 G7
      no permite la quieran consolar 
       C         B7         Em        Cm
      Dicen que alguien la miró y se fue, 
       G        Em       Am        D7        G
      dicen que pasa las noches llorando por él. 
       G        Em       Am        D7        G
      dicen que pasa las noches llorando por él.
       G        Em       Am        D7        G
      dicen que pasa las noches llorando por él.
 


 esta es mi version, lo mas complicado es el ritmo,
 es como son jalisiense. 
 Pero se lo pueden inventar.
Versión 5 - La Bikina (Letra y acordes)
Hola!Pues esta es mi primer transcripcion espero y les guste...
La Bikina. El ritmo es Balada Rapida...

C-A#-C-F-E7-Am-F7-C-Am-Dm-G7-C

   C                   Bm7   E7
Solitaria, camina la Bikina,
    Am                Gm7  C7
la gente se pone a murmurar,
  F         E7       Am
Dicen que tiene una pena,
 D7                 Dm7
dicen que tiene una pena
               G7
que le hace llorar.


   C           Bm7     E7
Altanera, preciosa y orgullosa
    Am                 Gm7  C7
no permite la quieran consolar
 F      E7        Am      F7
pasa luciendo su real majestad,
 C       Am        Dm         G7      C
pasa y camina y los mira sin verlos jamás.


Fm-A#-Gm7-Cm7
La  Bi ki na
Fm     A#      D#
tiene pena y dolor
Fm-A#-Gm7-Cm7
La  Bi ki na
D         Dm7 G7
no conoce el amor.


   C                  Bm7  E7
Altanera, preciosa y orgullosa
    Am               Gm7  C7
no permite la quieran consolar
 F        E7         Am        F7
dicen que alguien ya vino y se fue,
 C       Am         Dm       G7        C
dicen que pasa las noches llorando por el.


Fm-A#-Gm7-Cm7
La  Bi ki na
Fm    A#      D#
tiene pena y dolor
Fm-A#-Gm7-Cm7
La  Bi ki na
D     Dm7     G7
no conoce el amor.

    C                 Bm7   E7
Altanera, preciosa y orgullosa
    Am               Gm7   C7
no permite la quieran consolar
 F         E7        Am        F7
Dicen que alguien la miró y se fue,
 C        Am       Dm        G7        C
dicen que pasa las noches llorando por él.
 C        Am       Dm        G7        C
dicen que pasa las noches llorando por él.
 C        Am       Dm        G7        C-A#.C
dicen que pasa las noches llorando por él.
Versión 6 - La Bikina (Letra y acordes)
En esta transcripcion les pongo la cancion de Luis Miguel
La Bikina. El ritmo es Mariachi Rapido 3/4

Acordes C,Bb,F,E7,Am,Bb13,Am7,Dm7,G7,Bm7,Gm7,C7,D7,G7#5,B13,Bb7,
         ,Ebmaj7,Cm7,Fm7,Eb,Bm7b5 Y D9.


Introduccion= C-Bb-C-F-E7-Am-Bb7-C-Am7-Dm7-G7-C

   C                   Bm7     E7
Solitaria, camina la Bikina,
   Am                    Gm7   C7
la gente se pone a murmurar,
F         E7        Am
Dicen que tiene una pena,
            D7      Am7
dicen que tiene una pena
      D7       Dm7         G#75
que la hace llorar.


  C                      Bm7      E7
Altanera, preciosa y orgullosa
      Am                   Gm7    C7
no permite la quieran consolar
F      E7        Am        B13
pasa luciendo su real majestad,
C        Am7      Dm7      G7         C
pasa y camina los mira sin verlos jamás.


Fm7-Bb7-Ebmaj7-Cm7
La  Bi  ki     na

Fm7      Bb7      Eb
   tiene pena y dolor

Fm7-Bb7-Ebmaj7-Cm7
La  Bi  ki     na
D7              Dm7     G#75
  no conoce el amor.


    C                    Bm7     E7
Altanera, preciosa y orgullosa
      Am                   Gm7   C7
no permite la quieran consolar

F      E7        Am        B13
pasa luciendo su real majestad,
C        Am7      Dm7      G7         C
pasa y camina los mira sin verlos jamás.


Fm7-Bb7-Ebmaj7-Cm7
La  Bi  ki     na

Fm7      Bb7      Eb
   tiene pena y dolor

Fm7-Bb7-Ebmaj7-Cm7
La  Bi  ki     na
D7              Dm7     G#75
  no conoce el amor.

    C                    Bm7
Altanera, preciosa y orgullosa
E7      Am                   Gm7   C7
  no permite la quieran consolar
F         E7         Am        B13
Dicen que alguien la miró y se fue,
C         Am7      Dm7       G7        C
dicen que pasa las noches llorando por él.

Descanso= Bm7b5-E7-Am-Gm7-C7-F-E7-Am-D9-Dm7-G7-C-Bm7-
         -E7-Am-Gm7-C7-F-E7-Am-B13-C-Am7Dm7-G7-C


C         Am7      Dm7       G7        C
dicen que pasa las noches llorando por él.
C         Am7      Dm7       G7        C
dicen que pasa las noches llorando por él.
C         Am7      Dm7       G7        C
dicen que pasa las noches llorando por él.


Esta dificil la cancion pero con practica se entiende
oh y escuchen la cancion y agarren de ahi el ritmo que es
lo mas dificil.buena suerte. "(Lerkai)"...

PS: si ahi acordes desconocidos solo toca lo mas
    simple como si es Bm7b5 toca Bm7 y si no buscalos
    por ahi.suerte!!!
Versión 7 - La Bikina (Acordes para piano o teclado (con notas))
Para empezar te daré una pequeña introducción 
a la simbología: 
Debido a que la sección armonica, en todos los 
Teclados viene marcada en Inglés, usaremos 
dicho idioma para identificar el nombre de 
los acordes y en Español para la sección 
melódica. Utilizaremos números a lado de 
las notas los cuales nos indican la octava 
a la que pertenece la nota, ejemplo: 
'do5' es menor que 'do6'. En el teclado 
el primer do es 'do2' después 'do3', 'do4',
'do5' y así sucesivamente. 
Vals                                             Vel.3

          C                           Am   D7      Em
re4 sol4 do5 si4 si4 do5 si4 la4 sol4 si4 laa4 si4 la4 

                           Dm7 G7  C           B7 
sol4 si4 la4 sol4 si4 sol4 faa4   mi4 mi4 mi4 fa#4 mi4 

      Em         A7           
fa#4 sol4 sool4 si4 la4 sol4 si4 la4 sol4 si4 la4 sol4 

              D7           G                        
si4 la4 sol4 laa4 re4 re5 do5 si4 re5 do5 si4 la4 sol4 

Am       B7       Em                            Dm7 G7
si4 la4 doo5 sii4 la4 sol4 si4 la4 sol4 la4 sol4 faa4

C           B7           Em            C    G
mi4 mi4 mi4 fa4 mi4 fa#4 sol4 la4 si4 doo5 si4 la4 sol4

Em           Am            D7             G     Cm
si4 la4 sol4 la4 sol4 fa#4 la4 sol4 fa#4 sool4 sool4 

F7    Bb  Gm    Eb          F7          Bb     Cm
laa4 laa4 siib4 siib4 sib4 do5 sib4 do5 reee5 sool4 

F7   Bb   Gm    Eb             Cm7            D7
laa4 laa4 siib4 sol4 sol4 sol4 sol4 fa#4 sol4 la4  re4 

    C                            Am      D7        Em 
re5 do5 si4 re5 do5 si4 la4 sol4 si4 la4 doo5 sii4 la4 

                          Dm7 G7            B7  
sol4 si4 la4 sol4 la4 sol4 faa4 mi4 mi4 mi4 fa4 mi4 

     Em            C   G            Em            Am
fa#4 sol4 la4 si4 doo5 si4 la4 sol4 si4 la4 sol4 la4 

           D7           G
sol4 fa#4 la4 sol4 fa#4 sool4
             
            Y aquí termina la melodía y el ritmo.
Versión 8 - La Bikina (Acordes para piano o teclado (con notas))
G                      B7
Solitaria camina la bikina
sol sol* fa* mi* sol*fa*mi* re*do*mi* re*

Em                     Dm  G7
la gente se pone a murmurar
mi*re*do*,mi*re*do*, mi*do*sib


C           B7        Em
dicen que tiene una pena
la sol# la si la si do*, do*

A7
dicen que tiene una pena
mi*re*do*mi*re*do**mi*re*


               D7
que la hace llorar
do*mi*re*do* re*

G                         B7
Altanera preciosa y orgullosa
sol sol* fa* mi* sol*fa*mi* re*do*mi* re*

Em                           Dm   G7
no permite que la quieran consolar
mi*re*do*,mi*re*do*, mi*do*sib, do*

C        B7       Em       Cm
pasa luciendo su real majestad
la sol# la si la si do*, re*mi* fa*

G                  D7
pasa camina y los mira
mi*re*do*mi*re*do**re*do*

              G
sin verlos jamás
si re*do* si do*

Cm  F    Dm    Gm
La- Bi--—ki----na
do*, re*, re* mib*

Cm     F       Bb
tiene pena y dolor
mib* mib* fa* mib*fa* sol*


Cm  F    Dm    Gm
La- Bi--—ki----na
do*, re*, re* mib*

A7            D
no conoce el amor
do*do*do*, si do* re*

---se repiten las notas---

///Hola a todos, les presento este
tema muy bonito, con sus acordes y
 sus notas, para tocar ya sea con
guitarra o punteada, o una flauta.
La nomenclatura que utilizo es la
siguiente, y es la que usaré en los
próximos temas:
Notas sin asterisco (*)son iguales al índice 5.
Notas con un asterisco son iguales al índice 6
Notas con dos asteriscos son iguales al índice 7
Notas con Mayúsculas son iguales al índice 4
# son notas sostenidas.
b  con notas bemoles
Notas con #* son índice 6 sostenido
Notas con b* son índice 6 bemoles
--El índice 4 es la escala que va de la 6ta
cuerda pulsada al aire hasta el Si de la 5ta cuerda
 segundo traste. Este índice no se
puede tocar con la flauta dulce.
---El índice 5 es la escala que va desde el
 Do de la 5ta cuerda tercer traste, hasta el
 Si de la 3ra cuerda tercer traste. En la
flauta va desde el Do con todos los orificios
 tapados hasta el Si tapado el de abajo y el primero.
El índice 6 es la escala que va desde el Do de la 2da cuerda
primer traste hasta el Si de la 1ra cuerda, 7mo traste;
 en la flauta va desde el Do agudo hasta el Si agudo
Y  así sucesivamente para el índice 7
Espero que no sea muy complicado este sistema, pero es lo que
he considerado más práctico dado la gran necesidad de encontrar
 una forma de escribir  el punteo de las melodías que tanto nos
 gusta realizar y que no hay en ningún sitio hasta el momento.
Todo esmacostumbrse. Si más adelante hubiera una mejor forma
de escribirlas no duden que se las haré llegar de esa manera.
 En Guitarra Fácil, en su acápite Toca Todo Fácil, tiene un
sistema similar para las notas, pero todavía no publican
gratis estas revistas en la  Red.
Repetiré estas orientaciones  en las próximas 6 canciones que
les envíe, luego si les gusta copien estas. Les aclaro que
son interpretaciones personales y las notas no guardan
relación exacta con los temas originales, pero sirven mucho.
Gracias por su atención.

El material contenido en esta página es para exclusivo uso privado y con propósito meramente educativo, se prohibe su reproducción y uso con fines comerciales