Historia de un Amor

Tabs, letra y acordes de 'Historia de un Amor' por Luis Miguel

Versiones disponibles: Tablatura para guitarra (TAB) - Letra y acordes - Tablatura para guitarra (TAB) - Letra y acordes - Letra y acordes

1.0 INTRO:
**********
El intro lo he divido en partes para que sea mas fácil seguirlo, estas partes estan
definidas por las lineas verticales.

e|----13-12-13-10-|----15-13-12-10-12----|----13-12-10---10----|---12-10----10-12-|
B|----------------|-------------------13-|-------------13---12-|---------13-------|
G|----------------|-12-------------------|-10------------------|-9----------------|
D|-12-------------|----------------------|---------------------|------------------|
A|----------------|----------------------|---------------------|------------------|
E|----------------|----------------------|---------------------|------------------|

e|----17-15-13-12-13-10-|----15-13-12-10-12----|----13-12-10----10----|------------|
B|----------------------|-------------------13-|-------------13----12-|---12-13----|
G|-14-------------------|-12-------------------|-10-------------------|-9-------14-|
D|----------------------|----------------------|----------------------|------------|
A|----------------------|----------------------|----------------------|------------|
E|----------------------|----------------------|----------------------|------------|

Esta es la manera que a mi me sale mas facil. Si tu guitarra lo permite puedes
transpornerla a otra posición donde te sea facil tocarla.

2.0 ESTROFAS:
*************
ya no estas...                 Y en el alma...
e|-0-0-12-12-12-10-13-------10-|-0-0-10-10,-10-8-12-8-----------|
B|--------------------12-13----|----------------------10-12-13-|
G|-----------------------------|---------------------------------|

Y si ya no..        Por que dios...    Para hacerme...
e|-0-0-8-8-8-7-10-7-|------7-7-7-5-8-5-|-----5-5,-5-4-7-|
B|------------------|-8-10-------------|-6-8------------|
G|------------------|------------------|----------------|


Siempre fuiste...              Adorarte para...
e|-0-0-12-12-12-10-13-------10-|-0-0-10-10-10---12-------------|
B|--------------------12-13----|--------------13---13-10-12-13-|
G|-----------------------------|-------------------------------|

En tus besos...     El calor...        El amor y la pasión
e|-0-0-8-8-8-7-10-7-|------7-7-7-5-8-5-|-----5-4-8-7-5-|
B|------------------|-8-10-------------|-6-8-----------|
G|------------------|------------------|---------------|

Es la historia...       Como no..      Que me hizo...         Todo el bien...
e|-------------------10-|-10-8-7-7-5-4-|-------------------12-|-12-10-8-8-8-7-5-|
B|-13-12-10-12-13-10----|--------------|-15-13-12-13-15-12----|-----------------|
G|----------------------|--------------|----------------------|-----------------|

Que le dio luz...             Apagandola...
e|-12-10-8-10---12----13-10-|-10----------10----12-|
B|-----------------13-------|----13-12-13----12----|
G|--------------------------|----------------------|

Hay que vida...         Sin tu amor no vivire
e|-------------------10-|-10-------------------|
B|-13-12-10-12-13-10----|----13-12-10----------|
G|----------------------|-------------12-10-9--|

Siempre fuiste...              Adorarte para...
e|-0-0-12-12-12-10-13-------10-|-0-0-10-10,-10----12-------------|
B|--------------------12-13----|---------------13----13-10-12-13-|
G|-----------------------------|---------------------------------|

En tus besos...     El calor...        El amor y la pasión
e|-0-0-8-8-8-7-10-7-|------7-7-7-5-8-5-|-----5-4-8-7-5-|
B|------------------|-8-10-------------|-6-8-----------|
G|------------------|------------------|---------------|

Los acordes esta también en este servidor.

INTRO ALTERNATIVO
*****************
Esta si es una pichanga tocarla, y suena bien.

e|---1-0-1---|---3-1-0---0---|---1-0---------|---0-------0-|
B|---------3-|---------3---1-|-------3-1-3-0-|-----3-1-3---|
G|-----------|-0-------------|---------------|-------------|
D|-0---------|---------------|-3-------------|-2-----------|
A|-----------|---------------|---------------|-------------|
E|-----------|---------------|---------------|-------------|

|---5-3-1-0-1---|--3-1-0---0---|---1-0---------|---------|
|-------------3-|--------3---1-|-------3-1-3-0-|---0-1---|
|-2-------------|-0------------|---------------|-------2-|
|---------------|--------------|-3-------------|-2-------|
|---------------|--------------|---------------|---------|
|---------------|--------------|---------------|---------|

Si les gusta la transcripción no olviden en escribirme, también sus comentarios.
Finalmente un saludo para la Gente de la UNI y también para la gente
de 10 de Octubre en SJL.
Tengo que admitirlo, esta canción es importante para mi por que me recuerda lo
que amé alguna vez y ahora solamente es la historia de un amor como no hubo
otro igual. (si o no flaca)
Versión 2 - Historia de un Amor (Letra y acordes)
Hola a tod@s!! esta versión es la original del disco...
las otras versiones eran muy simples y no se parecían tanto

Espero les  sea útil esta versión !

*Un saludo para Ana V., la quiero muchote*

[HOLMES]



INTRO:

Dm C G/B C G/B F/A Bdim F/A E/G#

Am E7/B Am/C A/C# Dm7 G/B C F/A

Bdim E7 Dm6/A



        Am           Bm7b5         E7
Ya no estas mas a mi lado corazón
                Asus(add2) Am       Em7(add4) Am(add2)
en el alma sólo tengo      soledad
                 G(add2)
y si ya no puedo verte
                        F(add2)
por qué Dios me hizo quererte
       B7            E      E/D    Am/C
para hacerme sufrir mas.

        Fmaj7       Bm7b5                E7b5
Siempre fuiste la razón de mi existir
   E7/G#      Asus(add2)    Am   G/F
adorarte para mi fue religión
       Fmaj7         G(add2)    G13
en tus besos yo encontraba
             Gb13   F13
el calor que me brindaba
    Bm7/E E7b9   Am(add2)   D/E      Am11
el amor y la pasión.

--CORO---
                          Bm7b5
Es la historia de un amor
                  E7    E7/D
como no hay otro igual
                   Cmaj7
que me hizo comprender
                      Fmaj7
todo el bien, todo el mal
                    Dm7    G/B
que le dio luz a mi vida
              Cmaj9      F/A
apagándola después
        Dm/A Am/E     Dm   Dm/C  Bm7b5
hay que vida tan obscura
        F9b5      E       E/D  Am/C
sin tu amor no viviré.

           Fmaj9    Bm7b5                E7b5
Siempre fuiste la razón de mi existir
   E7/G#      Am9                   G/F
adorarte para mi fue religión
       Fmaj7         G13
en tus besos yo encontraba
                Gb13 F13
el calor que me brin daba
    Bm7/E E7b9      Am
el amor      y la pasión.

INSTRUMENTAL

D7  Am11  Bm7b5

E7b5  E7/G#  Am9

G/F  Fmaj7  G13  Gb13

F13  Bm7/E  E7b9  Am7  D/E  Am11

--CORO---
                          Bm7b5
Es la historia de un amor
                  E7    E7/D
como no hay otro igual
                   Cmaj7
que me hizo comprender
                      Fmaj7
todo el bien, todo el mal
                   Dm7    G/B
que le dio luz a mi vida
              Cmaj9      F/A
apagándola después
        Dm/A Am/E     Dm   Dm/C  Bm7b5
hay que vida tan obscura
        F9b5      E       E/D  Am/C
sin tu amor no viviré.

          Fmaj9    Bm7b5                E7b5
Siempre fuiste la razón de mi existir
   E7/G#      Am9                   G/F
adorarte para mi fue religión
       Fmaj7         G13
en tus besos yo encontraba
                Gb13 F13
el calor que me brin daba
    Bm7/E E7b9 Dm     C  G/B
el amor y la pasión.


C G/B  F/A  Bdim  F/A  E/G#  Am11
Versión 3 - Historia de un Amor (Tablatura para guitarra (TAB))
  *Este intro esta muy facil, si conoces la melodia
1
e--0--0--12--12--12--10---13----------10---------------------
B-----------------------------12--13-------------------------
C------------------------------------------------------------

2
e--0--0--10--10--10-------12---------------------------------
B---------------------13------13--10--12--13-----------------
C------------------------------------------------------------
 
3                                                       (Primer Final)              
e--0--0--8-8-8/7--10--7---------7--7--7--5--8--5-------*-5-5-5--4--7-
B------------------------8--10--------------------6--8-*-------------
C------------------------------------------------------*-------------

e--0-1-0--------0-----
B---------3-1-3-------
C---------------------


**Repite 1,y 2, el la 3 solo cambia el Final  


(Segundo Final)

e--5-4----------------
B-------8-7-5---------
C---------------------


Esta es la segunda parte de la Cancion.
(solo dale ritmo y se escucha Bien.)

e---------------------10-10--8-7-7-5-4-----------
B--13-12-10-12-13-10--12-12-10-9-9-6-5-----------
C------------------------------------------------


e---------------------12-12--10---------------
B--15-13-12-13-15-12--13-13-----------------
C---------------------------------------
Versión 4 - Historia de un Amor (Letra y acordes)
Intro Acustico acompanado de estos acordes y despues  
la letra de la cancion 

Dm    E7   A    A    G   E7----

1a. Frase

        Dm                 E7
Ya no estas mas ami lado corazon,
                    Am
y en el alma solo tengo soledad,
                  G
y si ya no puedo verte, 
                    F
porque dios hiso quererte,
                     E7----
para hacerme sufrir mas.

2a. Frase

Dm    E7   Am   Am   G   F   E7   Am

          Dm
Siempre fuistes la razon de mi existir,
              Am
Adorarte para mi fue religion,
G
En tus besos encontraba,
     F             E7
El calor que me brindabas,
    Am----
El amor y la pasion.


Coro


                      Dm                 
ES LA HISTORIA DE UN AMOR,
                   E7
COMO NO HAY OTRO IGUAL,
                Am
QUE ME HISO COMPRENDER TODO
 
EL BIEN, TODO EL MAL,
                     F
QUE LE DIO LUZ A MI VIDA,
     G        C
APAGANDOLA DESPUES,
                    Dm
AY! QUE VIDA TAN OBSCURA,
                 E7
SIN TU AMOR NO VIVIRE...


*Se repite Frase Numero 2 Y dos veses coro y final.
 
Disculpen los errores de autografia y a de ver uno que 
otro error el la escritura de los tonos en la 2a. frase.

El intro esta en esta misma pagina de canciones.


*Version de Jose Rodriguez y escrita por Jose L. Ramos
Versión 5 - Historia de un Amor (Letra y acordes)
 Dm                    G        A7
Ya no estas mas a mi lado corazon
                           Dm
En el alma solo tengo soledad
                  C
Y si ya no puedo verte
                        E
Porque Dios me hizo quererte
        A7           Dm
Para hacerme sufrir mas

Dm                   G             A7
Siempre fuiste la razon de mi existir
                          Dm
Adorarte para mi fue religion
                       C
En tus besos yo encontraba
                     E
El calor que me brindaba
     A7           Dm
El amor, y la pasion...

Dm                     G
Es la historia de un amor
                   A7
Como no hay otro igual
                    Dm
Que me hizo comprender

Todo el bien, todo el mal
                     C
Que le dio luz a mi vida
               Dm
Apagandola despues
                    G
Ay que vida tan obscura
    A7             Dm
Sin tu amor no vivire

 Dm                  G             A7
Siempre fuiste la razon de mi existir
                         Dm
Adorarte para m fue religion
                         C
Y en tus besos yo encontraba
                     E
El calor que me brindaba
     A7          Dm
El amor, y la pasion

Dm                     G
Es la historia de un amor
                   A7
Como no hay otro igual
                    Dm
Que me hizo comprender

Todo el bien, todo el mal
                     C
Que le dio luz a mi vida
                Dm
Apagandola despues
                    G
Ay que vida tan obscura
         A7        Dm
Sin tu amor no vivire

Dm                   G             A7
Siempre fuiste la razon de mi existir
                           Dm
Adorarte para mi fue religion
                         C
Y en tus besos yo encontraba
                     E
El calor que me brindaba
     A7          Dm
El amor, y la pasion...

El material contenido en esta página es para exclusivo uso privado y con propósito meramente educativo, se prohibe su reproducción y uso con fines comerciales