Un Rock

Acordes de la canción 'Un Rock' de La Beriso

[INTRO] C-G-F-C x2

e|----------------------555----------------55-
B|----------------------666----------------66-
G|-/5~-7br-5----------5-555-7br-5~------5~-55-
D|----------7-5~--5~-5-----------------5------
A|---------------7----------------(5h7)-------
E|--------------------------------------------

e|-----------------------------555--------------55-|
B|-----------------------------666--------------66-|
G|-5~-5~-7br-5---------------5-555-7br-5~----5~-55-|
D|---7---------7-5~--5-7-5~-5------------5h7-------|
A|------------------7------------------------------|
E|-------------------------------------------------|


[VERSO]

C                 G
Voy, en busca de lo mejor
         F                           C (F)
por las calles del destino camino y voy
C                     G
sé, que siempre pienso al reves
         F                            C
del que me chamuya y dice que no esta bien

[ESTRIBILLO]

Em          F                  C
Voy a ver, como hacer, para decirtelo
              G
si no es con vos
F                G            C
que esta noche suene un rocanrol

[REPITE INTRO]

[VERSO]

Sé, que tambien me equivoqué
pero no lo digas porque lo vuelvo a hacer
yo, siempre tiro la mejor
no me rompan las pelotas es mi gran pasión!

[ESTRIBILLO]

Voy a ver, como hacer, para decirtelo
si no es con vos
que esta noche suene un rocanrol
que esta noche suene un rocanrol

[SOLO] En base al Verso

[ESTRIBILLO]

Voy a ver, como hacer, para decirtelo
si no es con vos
que esta noche suene un rocanrol
que esta noche suene un rocanrol
que esta noche suene
que esta noche suene
que esta noche suene un rocanrol



x cualkier cosa me mandan mail a
lalos_boca20@hotmail.com
Aguante el Rock n' roll y nada mas,
es algo que los chetos no pueden entender!

El material contenido en esta página es para exclusivo uso privado y con propósito meramente educativo, se prohibe su reproducción y uso con fines comerciales