No Hables

Acordes de la canción 'No Hables' de La Beriso

Versiones de esta canción: Letra y acordes - Tablatura para guitarra (TAB) - Tablatura para guitarra (TAB)

intro:(C-Am-F-G)x2

C                     Am
Hoy ni el vicio del licor
                    F
Te podrá hacer olvidar
                    G
El dolor de tu traición
C                 Am
Y aquel amargo sabor
                        F
Que hoy en mis labios quedo
                    G
Por el beso de tu amor

       F
Y si quizás, tal ves
          C                           G
Hoy me volves a ver, no hables por favor
          F
Y si lo intento yo
       C                      G
No me dejes caer, en esa ilusión.

Sin querer vuelvo a pensar
Esas tardes de placer
Revolcándonos los dos
En una copa tal ves
O en una vieja canción
Me encierro con mi dolor

       F
Y si quizás, tal ves
         C                            G
Hoy me volves a ver, no hables por favor
          F
Y si lo intento yo
       C                     G
No me dejes caer, en esa ilusión.

F       G           C
Esa ilusión me abandono.

Y si quizás, tal ves
Hoy me volves a ver, no hables por favor
Y si lo intento yo
No me dejes caer, en esa ilusión.

Esa ilusión me abandono.

C          Am            F         G C
Larairaraira larairaraira larairaira raaaaaaa
Versión 2 - No Hables (Tablatura para guitarra (TAB))
Intro:

     C          Am        F        G
A|---------------------------------------|
D|---------------------------------------|
G|-4/5--------7-5-------7-5--5-7-9-7-5-4-|
B|------5/6-5-----5/6-5------------------|
e|---------------------------------------|
     C          Am        F       G              C
A|-----------------------------------------------3-|
D|------------------------------------------5--3---|
G|-4/5--------7-5-------7-5--5-7-9-7-5-4--2--------|
B|------5/6-5-----5/6-5----------------------------|
e|-------------------------------------------------|


C                     Am
Hoy ni el vicio del licor
                    F
Te podrá hacer olvidar
                    G
El dolor de tu traición
C                 Am
Y aquel amargo sabor
                        F
Que hoy en mis labios quedo
                    G
Por el beso de tu amor

       F
Y si quizás, tal ves
          C                           G
Hoy me volves a ver, no hables por favor
          F
Y si lo intento yo
       C                      G
No me dejes caer, en esa ilusión.

C                      Am
Sin querer vuelvo a pensar
                   F
Esas tardes de placer
                   G
Revolcándonos los dos.
C                Am
En una copa tal ves
                   F
O en una vieja canción
                     G
Me encierro con mi dolor

       F
Y si quizás, tal ves
         C                            G
Hoy me volves a ver, no hables por favor
          F
Y si lo intento yo
       C                     G
No me dejes caer, en esa ilusión.

F       G           C
Esa ilusión me abandono.


Y si quizás...
...Esa ilusión me abandono.

C          Am            F         G C
Larairaraira larairaraira larairaira raaaaaaa

"En el final acompaña el intro de fondo"

Alto TEMA, Espero que este bien
el intro cualquier cosa me dicen.


AGUANTE LA BERISO!!!!!!!!
CHAUCHA LUPS 14
Versión 3 - No Hables (Tablatura para guitarra (TAB))
Gente, les dejo el solo...

SOLO: (C - A - G - F) x 2

  (Esta parte arranca bien rápido)
e|-----5--------5--------5--------5---------5---5-------------------------
B|-5~~-5-8--5~~-5-8--5~~-5-8--5~~-5-8---5~~-5-8---8-6-5-----5-------------
G|-7b9------7b9------7b9------7b9-------7b9-------------7-7---7-5---------
D|----------------------------------------------------------------7-7~~~--
A|------------------------------------------------------------------------
E|------------------------------------------------------------------------

e|------------------------------------------------------------------------
B|---------5---------5------5--------8b10-8-6-8~~-------------------------
G|---------5---------5----5---7~~---5-------------------------------------
D|-----5-7-------5-7----7-------------------------------------------------
A|-5/7-------5/7----------------------------------------------------------
E|------------------------------------------------------------------------

e|--------------------------17~~~-15~~~-----------------------------------
B|-----13-15-17~~~~~-15-13-----------------------------------------------
G|-/14--------------------------------------------------------------------
D|------------------------------------------------------------------------
A|------------------------------------------------------------------------
E|------------------------------------------------------------------------

   (toda esta parte también se hace rápido)
e|------------------------------------------------------------------------
B|----13-13h15p13--13-13h15p13--13-13h15p13--13h15------------------------
G|-/14---------- 14--------- -14--------- -14-----------------------------
D|------------------------------------------------------------------------
A|------------------------------------------------------------------------
E|------------------------------------------------------------------------
                       Y si quizás tal vez....
e|------------------------------------------------------------------------
B|-17~~-15h13p15-13h12p13-12----12----------------------------------------
G|------------------------- h14----14p12p10~~~~---------------------------
D|------------------------------------------------------------------------
A|------------------------------------------------------------------------
E|------------------------------------------------------------------------

Aguante A VER Q’ SALE!!!!

El material contenido en esta página es para exclusivo uso privado y con propósito meramente educativo, se prohibe su reproducción y uso con fines comerciales