Mil Banderas

Acordes de la canción 'Mil Banderas' de La Beriso

Mil banderas - LA BERISO

Intro:

     Bm         G   D        A
e|----------------------------------------|
B|----------------------------------------|
G|----------------------------------------|  X2
D|-------------------------2-4-(2)--------|
A|---(2)-2-4-5-----(5)-5-----------5-(4)--|
E|-------------(3)------------------------|



VERSO:

Bm                  G
Cuantas cosas quisiera decir,
        D               A
Y me sobran letras para escribir
Bm                  G
Tantas risas van detrás de mí
        D          A
Cuanta ironía y soberbia aquí


(VERSO)

La cultura será el vengador
De estos delincuentes que gobiernan hoy
Tanta saña tanta represión
Por no estar de acuerdo con las leyes de hoy


ESTRIBILLO

Bm        D            A
Vamos plantemos mil banderas
Bm             D         A
Y que nuestros sueños se hagan hoy
G            A
Y tus hijos le dirás
G               A
que esta guerra seguirá,
G        A                Bm
para que no vuelvan nunca mas


PUENTE

Bm         G   D        A
e|---------------------------------------|
B|---------------------------------------|
G|---------------------------------------|
D|------------------------2-4-(2)--------|
A|---(2)-2-4-5-----(5)-5----------5-(4)--|
E|-------------(3)-----------------------|


(VERSO)

laberintos de desolación
corren por las calles de mi pueblo
injusticia robo corrupción
marca registrada del que gobernó

(VERSO)

cuantas marchas y un destino cruel
se ve la impotencia de escudo en la piel
el cansancio no los vencerá
esta guerra nuestra no la ganaran


ESTRIBILLO

Vamos plantemos mil banderas
Y que nuestros sueños se hagan hoy
Y tus hijos le dirás
que esta guerra seguirá,
para que no vuelvan nunca mas


SOLO:

Base con: (Bm G E A)x2


 ESTRIBILLO

Vamos plantemos mil banderas
Y que nuestros sueños se hagan hoy
Y tus hijos le dirás
que esta guerra seguirá,
para que no vuelvan nunca mas

FINAL:

     Bm         G   D        A
e|---------------------------------------|
B|---------------------------------------|
G|---------------------------------------|
D|------------------------2-4-(2)--------|
A|---(2)-2-4-5-----(5)-5----------5-(4)--|
E|-------------(3)----------------------|


     Bm         G   D        A
e|----------------------------------------------|
B|----------------------------------------------|
G|----------------------------------------------|
D|------------------------2-4-(2)---------------|
A|---(2)-2-4-5-----(5)-5----------5-(4)---2~~~--|
E|-------------(3)------------------------------|



BUENO ACA LES DEJO UN MUY BUEN TEMA DE LA BERISO
ESPERO QUE ESTE BIEN, CUALQUIER COSA ME AVISAN

¡¡¡AGUANTE LA BERISO!!!

CARLITOS73

El material contenido en esta página es para exclusivo uso privado y con propósito meramente educativo, se prohibe su reproducción y uso con fines comerciales