Infierno

Tabs, letra y acordes de 'Infierno' por La Beriso

Intro:

//G#m    B         C#            E     F#      //
e)-4-4-4-2---------------------------------------
B)--4-4---4-4-2-4--2-0-2-0-----------4-2---------
G)----------------------------1--4-4-----4-3-1---
D)-----------------------------------------------
A)-----------------------------------------------
E)-----------------------------------------------

G#m                        B
Vino una tormenta y ni la casa me dejó
C#                                       E          F#
Y en los escombros no quedaban los recuerdos de tu amor
G#m                    B
Una noche no hace mal dijiste cuando te inyectabas
C#                              E         F#
las promesas que esa noche la lluvia se llevó

  G#m    B         C#            E     F#
e)-4-4-4-2---------------------------------------
B)--4-4---4-4-2-4--2-0-2-0-----------4-2---------
G)----------------------------1--4-4-----4-3-1---
D)-----------------------------------------------
A)-----------------------------------------------
E)-----------------------------------------------


G#m                           B
Siempre fui creyente, creo en Dios, creía en la gente,
 C#                       E          F#
Y en mi perro que un día la mano me mordió
G#m                       B
En la calle la mirada es tan indiferente,
C#                        E           F#
Ya no creo en la gente sólo creo en mi Dios

 E                      F#
Miro al cielo y sigue siendo cielo
E                       F#
Y esta tierra quema como el infierno

//G#m    B         C#            E     F#      //
e)-4-4-4-2---------------------------------------
B)--4-4---4-4-2-4--2-0-2-0-----------4-2---------
G)----------------------------1--4-4-----4-3-1---
D)-----------------------------------------------
A)-----------------------------------------------
E)-----------------------------------------------


G#m                   B
Ayer cuando crecimos todo era tan distinto
 C#                       E        F#
Todo era un paraíso, ¿qué fue lo que pasó?
G#m                     B
La pregunta de mi vida siempre es la misma...
C#                           E           F#
¿Quién fue el hijo de puta que la vida nos compró?

     E                     F#
Miro al cielo y sigue siendo cielo
 E                    F#
Y esta tierra quema como el infierno

Acordes base del primer solo: G#m B C# E F#

(repetición de riff opcional)
e)-4-4-4-2--------------------------------------
B)--4-4---4-4-2-4--2-0-2-0-----------4-2--------
G)----------------------------1--4-4------4-3-1-
D)----------------------------------------------
A)----------------------------------------------
E)----------------------------------------------

 E                     F#
Miro al cielo y sigue siendo cielo
 E                    F#
Y esta tierra quema como el infierno


Acordes base del solo final: G#m B C# E F#

(repetición de riff opcional)
e)-4-4-4-2--------------------------------------
B)--4-4---4-4-2-4--2-0-2-0-----------4-2--------
G)----------------------------1--4-4------4-3-1-
D)----------------------------------------------
A)----------------------------------------------
E)----------------------------------------------

El material contenido en esta página es para exclusivo uso privado y con propósito meramente educativo, se prohibe su reproducción y uso con fines comerciales