El toro

Tabs, letra y acordes de 'El toro' por Joan Sebastian

Versiones disponibles: Tablatura para guitarra (TAB) - Letra y acordes

Esta fue mi primera colaboración en esta pagina. La mandé por allá
en Febrero del 2003 y estaba toda mal sacada. No le atinaba a ninguna nota.
Espero haber redimido mis errores con esta transcripción, ya con algo más
de experiencia en la guitarra se hace más fácil sacarla. Esta rolita
está especial para la raza que le gusta puntear/requintear y con dos
guitarras suena muy bien. Según leí el sr. Joan Sebastian compuso este
tema cuando combatía el cancer y usó como metáfora a un toro negro para
describir su enfermedad. Por cierto, cese a las corridas de toros!! Gente
morbosa que se entretiene viendo morir a un pobre animal.


(Intro)

e. -//10-10--8--8-6-5h6--5h6--6--5--5---------3---------|
B. -//11-11-10-10-8---8-8----8--7--7---7-----3----------|
G. -----------------------------------7-----3-------12*-|
D. ----------------------------------------5----12*-12*-|
A. ---------------------------------------5-------------|
E. --------------------------------------3--------------|
                                       *armonicos naturales


“Las penas son toros negros que embisten directo al alma”
e. --------------3---2----------------------------------------3-|
B. ------------4---------------------------------------------3--|
G. ----------5-----2---------------------------3p0-3p-3p0---3---|
D. --------5--------------------------------------4--3---2------|
A. -------3-----------------------------------------------------|
E. -------------------------------------------------------------|

“hay que lidiarlos suave, quedito”
e. --------------------------6--5-|
B. ----------------------3-4------|
G. --------------------3-------5--|
D. ------------------5------------|
A. ----------------3--------------|
E. -------------------------------|


“y hay que matarlos duro, duro y con tino, duro y con calma”
e. --------------------------------------------3---2--------3-------|
B. ------------------1-3h4-3---------------3-4----3--------3-3------|
G. ----------------3---------------------5-------2--------3---3p2p0-|
D. --------------3---------------------5-----------------5----------|
A. ------------1---------------------3------------------------------|
E. -----------------------------------------------------------------|

         Gm
Estoy lidiando a un toro bravo

un toro bravo
e. ---------10-11-10--8-6-5---|
B. ---------11-13-11-10-8-7-8-|
G. -------------------------7-|
D. ---------------------------|
A. ---------------------------|
E. ---------------------------|
         D7
bravo y olé, olé, olé
e. -------------------5--8-6-5-10--8-6-5-|
B. -----------------7-7-10-8-7-11-10-8-7-|
G. ---------------7-7--------------------|
D. ---------------7----------------------|
A. --------------------------------------|
E. --------------------------------------|

voy a cortarle orejas y rabo

voy a cortarle orejas y rabo
               Gm
sí, ya se lo brindé
e. ----------------10--8--10h11--8--6-|
B. ---------------11--10-11-----10-8--|
G. -----------------------------------|
D. -----------------------------------|
A. -----------------------------------|
E. -----------------------------------|

         F                   A#
A esa morena que está en la plaza
                Cm              D
que está en mi casa, en mi corazón
                           Gm
se lo dedico a los que me aman
        D7             Gm
a mis amigos y a la afición.
e. --------------------------------------------------|
B. --------------------------------------------------|
G. -------------------------7~-----------7~-3h5-3----|
D. ---------------------5-8----8-4h5-4-7----------5~-|
A. --------------------------------------------------|
E. --------------------------------------------------|


         Gm
Estoy lidiando a un toro negro como la noche
e. ---------------------------------------10-11-10-8-6-5-3-|
B. --------------------------------------------------------|
G. ---------------------------------------11-11-11-8-7-5-3-|
D. --------------------------------------------------------|
A. --------------------------------------------------------|
E. --------------------------------------------------------|
        D7
negra, negra es su intención
e. --------------------------2-5-8-6-5-/10-8-6-5-|
B. ------------------------3---------------------|
G. --------------------------2-5-8-7-5-/11-8-7-5-|
D. ------------------------4---------------------|
A. ----------------------------------------------|
E. ----------------------------------------------|

pero este toro a mi no me mata
e. --------------------------------|
B. --------------------------3-4-3-|
G. --------------------------------|
D. --------------------------------|
A. --------------------------------|
E. --------------------------------|
                                       Gm
este torito no me retira, me sobra condición
e. ----------------------------------------------------------|
B. ---------------------------------------------8-7-10-8-13~-|
G. -------------------------------------------7--------------|
D. ---------------------------------------5-8----------------|
A. ----------------------------------------------------------|
E. ----------------------------------------------------------|

           F                A#
Tiene mal nombre, se llama pena
       Cm              D
y una faena le voy a hacer
                              Gm
y no lo duden que salga en hombros
            D7            Gm
saldré triunfante del redondel.

Estoy lidiando a un toro bravo.
e. -----------8-10-13-10h11-10---------|
B. ---8-10-11------------------11-10-8-|
G. ------------------------------------|
D. ------------------------------------|
A. ------------------------------------|
E. ------------------------------------|

(Solo)

*Gtra. Eléctrica

             Gm                                D7
e. ------------------------10---------------------------------|
B. --------13b15~-11-13-11----11------15-16b18-16~--15-16-19~-|
G. -----12-----------------------12~--------------------------|
D. -/12-------------------------------------------------------|
A. -----------------------------------------------------------|
E. -----------------------------------------------------------|

                            Gm
e. ----------------------------------------------------------------|
B. -17h19-20-19----17h19-------------------------------------------|
G. -------------20-------20-19--19-17------------------------------|
D. -----------------------------------20-17-------17~-15-----------|
A. -----------------------------------------20-17--------17-15-17~-|
E. ----------------------------------------------------------------|

*Gtra. Acústica

           F         A#            Cm            D
e. -/6-6-6-5-8-8-8-8-6-10-10-10-10-8-11-11h13-11-10~-|
B. --------------------------------------------------|
G. -/7-7-7-5-8-8-8-8-7-10-10-10-10-8-12-12----12-11~-|
D. --------------------------------------------------|
A. --------------------------------------------------|
E. --------------------------------------------------|

*Trompeta

                       Gm               D7
e. ---------10-11-10-8-8-------------------8---------|
B. ---8-8-7--------------11--8-11-11-11-10---11-10-8-|
G. -7------------------------------------------------|
D. --------------------------------------------------|
A. --------------------------------------------------|
E. --------------------------------------------------|

*Gtra. Acústica

   Gm
e. ------------------------------|
B. ------------------------------|
G. -----7~-----------7~-3h5-3----|
D. -5-8----8-4h5-4-7----------5~-|
A. ------------------------------|
E. ------------------------------|


         Gm
Estoy lidiando a un toro bravo, traigo caballo
e. -------------------------------------------------10-|
B. -----------------------------------------8-10-11----|
G. ----------------------------------------------------|
D. ----------------------------------------------------|
A. ----------------------------------------------------|
E. ----------------------------------------------------|
         D7
y todo, todo pa’ rejonear
e. -------------------10-11-10------------------------------------|
B. ----------------------------13-11-10-13-11-10-------10---------|
G. ----------------------------------------------11-12------------|
D. -------------------------------------------------------12-13-12|
A. ---------------------------------------------------------------|
E. ---------------------------------------------------------------|

a este torito bien encornao’

este torito que pa’ otro lao’
               Gm
me quiere despachar.
e. ------------------------8--------------|
B. ----------------8-10-11---10h11-10--8~-|
G. ---------------------------------------|
D. ---------------------------------------|
A. ---------------------------------------|
E. ---------------------------------------|

       F                 A#
Esta pesado, son muchos kilos
          Cm           D
pero mis finos lo acabarán
e. -----------8-------8---10h11p8h10-8-----------|
B. -------------11-10------------------11-10-8-7-|
G. ----------------------------------------------|
D. ----------------------------------------------|
A. ----------------------------------------------|
E. ----------------------------------------------|
                           Gm
verán que no me manda pal pozo
         D7          Gm
y en el pozo me gritarán ¡olé!
e. ------------------------------------------------|
B. ------------------------------------------------|
G. -----------------------7~-----------7~-3h5-3----|
D. -------------------5-8----8-4h5-4-7----------5~-|
A. ------------------------------------------------|
E. ------------------------------------------------|

         Gm
Estoy lidiando a un toro negro como la noche
        D7
negra, negra es su intención
e. ---------------------------------------8-10-10h11-11-10-10-|
B. -----------------------------7-8-10-11---------------------|
G. ---------------------8p7-8p7-------------------------------|
D. -----------------------------------------------------------|
A. -----------------------------------------------------------|
E. -----------------------------------------------------------|

pero este toro a mi no me mata
e. ------------------------------------------|
B. ---------------------------10-11-10-------|
G. ------------------------------------12-11-|
D. ------------------------------------------|
A. ------------------------------------------|
E. ------------------------------------------|
                                       Gm
este torito no me retira, me sobra condición
e. ---------------------------------------------------------------|
B. --------------------------------------7-10-8-11-10-13-11-13/15-|
G. ---------------------------------------------------------------|
D. ---------------------------------------------------------------|
A. ---------------------------------------------------------------|
E. ---------------------------------------------------------------|

           F                A#
Tiene mal nombre, se llama pena
e. --------------------------------10-11/13-11-|
B. -----------13/15-------------11-------------|
G. --------------------------10----------------|
D. --------------------------------------------|
A. --------------------------------------------|
E. --------------------------------------------|
       Cm              D
y una faena le voy a hacer
e. -------------------------11-10-----|
B. -----------------------------------|
G. ---------------------8-7-------8-7-|
D. -----------------------------------|
A. -----------------------------------|
E. -----------------------------------|
                              Gm
y no lo duden que salga en hombros
            D7            Gm
saldré triunfante del redondel.
e. --------------------------------------------------|
B. ---------------------------8-10-11-10-11-8h10-8-8-|
G. -------------------------7------------------------|
D. --------------------------------------------------|
A. --------------------------------------------------|
E. --------------------------------------------------|

Estoy lidiando a un toro bravo.
e. ----------------------------------|
B. --------------------------4-3-----|
G. ------------------------------5---|
D. --------------------------------5-|
A. ----------------------------------|
E. ----------------------------------|

           F                A#
Tiene mal nombre, se llama pena
e. --------------------------------------|
B. ----------------------------------3-4-|
G. ----------------------------2-3-5-----|
D. --------------------------3-----------|
A. --------------------------------------|
E. --------------------------------------|
       Cm              D
y una faena le voy a hacer
e. ----------------------------------------------|
B. ----------------------------10-11-13-11-10----|
G. ----------------------11-12----------------11-|
D. ----------------------------------------------|
A. ----------------------------------------------|
E. ----------------------------------------------|
                              Gm
y no lo duden que salga en hombros
e. ----------------------------------6-8/10-10p8-|
B. --------------------------------8-------------|
G. ------------------------------7---------------|
D. ----------------------------------------------|
A. ----------------------------------------------|
E. ----------------------------------------------|
            D7             Gm
saldré triunfante del redondel, ¡olé!                  ¡olé!
e. ------------------------------------------------------3---|
B. ------------------------------------------------------3---|
G. ----------------------------7~-----------7~-3h5-3-----3---|
D. ------------------------5-8----8-4h5-4-7----------5~--5---|
A. ------------------------------------------------------5---|
E. ------------------------------------------------------3---|


*Dudas o comentarios a mi e-mail: gerewalsh@gmail.com
[09/11/10]
Versión 2 - El toro (Letra y acordes)
        Gm
Estoy lidiando a un toro bravo

un toro bravo
         D7
bravo y olé, olé, olé

voy a cortarle orejas y rabo

voy a cortarle orejas y rabo
               Gm
sí, ya se lo brindé

         F                   A#
A esa morena que está en la plaza
                Cm              D
que está en mi casa, en mi corazón
                           Gm
se lo dedico a los que me aman
        D7             Gm
a mis amigos y a la afición.


         Gm
Estoy lidiando a un toro negro como la noche
        D7
negra, negra es su intención

pero este toro a mi no me mata
                                       Gm
este torito no me retira, me sobra condición

           F                A#
Tiene mal nombre, se llama pena
       Cm              D
y una faena le voy a hacer
                              Gm
y no lo duden que salga en hombros
            D7            Gm
saldré triunfante del redondel.

Estoy lidiando a un toro bravo.


(Intermedio)


         Gm
Estoy lidiando a un toro bravo, traigo caballo
         D7
y todo, todo pa’ rejonear

a este torito bien encornao’

este torito que pa’ otro lao’
               Gm
me quiere despachar.

       F                 A#
Esta pesado, son muchos kilos
          Cm           D
pero mis finos lo acabarán
                           Gm
verán que no me manda pal pozo
         D7          Gm
y en el pozo me gritarán ¡olé!

         Gm
Estoy lidiando a un toro negro como la noche
        D7
negra, negra es su intención

pero este toro a mi no me mata
                                       Gm
este torito no me retira, me sobra condición

           F                A#
Tiene mal nombre, se llama pena
       Cm              D
y una faena le voy a hacer
                              Gm
y no lo duden que salga en hombros
            D7            Gm
saldré triunfante del redondel.

Estoy lidiando a un toro bravo.

           F                A#
Tiene mal nombre, se llama pena
       Cm              D
y una faena le voy a hacer
                              Gm
y no lo duden que salga en hombros
            D7             Gm
saldré triunfante del redondel, ¡olé!

El material contenido en esta página es para exclusivo uso privado y con propósito meramente educativo, se prohibe su reproducción y uso con fines comerciales