Llegaste Tú

Tabs, letra y acordes de 'Llegaste Tú' por Jesse y Joy

Versiones disponibles: Letra y acordes - Letra y acordes - Letra y acordes - Tablatura para guitarra (TAB)

Ke pEx!! BandA!!! aki les dejo esta rolota de Jesse y Joy
ke la vdd es la version 100% correkta los vi tokandola
bueno la vi a joy por ke joy es la ke toka los akordes jeje ;p
espero y les guste aki les dejo los akordes korrectos xD

Esta kancion va especialmente dedikada para
ALEJANDRA DIAZ de LOPEZ LA AMO Y ES TODO PARA MI!!
TE AMO MI VIDA!!!!!xD


Acordes:

C  C1  C2  Em  Dm  D#m  Am7  G

0   0  0   7    5   6    0   3
1   6  8   8    6   7    1   3
0   0  0   9    7   8    0   4
2   7  9   9    7   8    2   5
3   8  10  7    5   6    0   5
0   0  0   0    0   0    0   3

C
Hundida yo estaba, ahogada en soledad

Em                                   D#m
Mi corazón lloraba de un vacío total

Dm                           C1
Todo lo intenté por donde quiera te busqué

     Am7               G
Eras tú mi necesidad.

C
Triste y desolada ya no pude soportar

Em                                     D#m
Más desesperada era imposible de estar

Dm                          C1
Todo lo intenté por donde quiera te busqué

     Am7
Eras tú mi necesidad

C1             C2
Alcé mi rostro y...


Coro:

          C            C2
Llegaste tú y todo cambio

          C                   C2
Llegaste tú, la esperanza triunfó

          Dm             G
Llegaste tú uuuu uuuu uu u,  volví a nacer.


Intermedio:

e-----------------------
B-------13/15-13--------
G-12/17-----------12----
D--------------------12-
A-----------------------
E-----------------------


C
Por tanto tiempo quise encontrar la solución

Em                                         D#m
a ese gran vacío que llevaba en mi interior

Dm                           C1
Todo lo intenté por donde quiera te busqué

     Am7
Eras tú mi necesidad

C1             C2
Alce mi rostro y...



Coro:

          C            C2
Llegaste tú y todo cambio

          C                   C2
Llegaste tú, la esperanza triunfó

          Dm             G
Llegaste tú uuuu uuuu uu u,  volví a nacer.


e-----------------------13-12--------------------
B------13-------------13------13---------13------
G-9-10----10-9---9-10---------------9-10----10-9-
D------------------------------------------------
A------------------------------------------------
E------------------------------------------------


e--------13-15-
B------13------
G-9-10---------
D--------------
A--------------
E--------------



          C            C2
Llegaste tú y todo cambio

          C                   C2
Llegaste tú, la esperanza triunfó

          Dm             G
Llegaste tú uuuu uuuu uu u,  volví a nacer.



Final: G  y hacen un rasgueo hacia abajo Con C



--------------------------------------------------------------
--------------------------------------------------------------


Acordes normales : sin cejilla exepto por F y por G
les rekomiendo ke G lo token kon cejilla para ke se oiga un
pokito mejor jeje ;p


Otra Version por si tienen wueba de tokarla asi la
tengo de otra forma jeje nomas ke la pasada si es la korrecta
y ahi diskulpen no enkontre akorde ke susituyera a D#m
asi ke falto en esta transcripcion jojo xD

C
Hundida yo estaba, ahogada en soledad

Em
Mi corazón lloraba de un vacío total

Dm                           F
Todo lo intenté por donde quiera te busqué

     Am7               G
Eras tú mi necesidad.

C
Triste y desolada ya no pude soportar

Em
Más desesperada era imposible de estar

Dm                          F
Todo lo intenté por donde quiera te busqué

     Am7
Eras tú mi necesidad

  F            G
Alcé mi rostro y...


Coro:

          C            G
Llegaste tú y todo cambio

          C                   G
Llegaste tú, la esperanza triunfó

          Dm             G
Llegaste tú uuuu uuuu uu u,  volví a nacer.


Intermedio:

e-----------------------
B-------13/15-13--------
G-12/17-----------12----
D--------------------12-
A-----------------------
E-----------------------


C
Por tanto tiempo quise encontrar la solución

Em
a ese gran vacío que llevaba en mi interior

Dm                           F
Todo lo intenté por donde quiera te busqué

     Am7
Eras tú mi necesidad

  F            G
Alce mi rostro y...



Coro:

          C            G
Llegaste tú y todo cambio

          C                   G
Llegaste tú, la esperanza triunfó

          Dm             G
Llegaste tú uuuu uuuu uu u,  volví a nacer.


e-----------------------13-12--------------------
B------13-------------13------13---------13------
G-9-10----10-9---9-10---------------9-10----10-9-
D------------------------------------------------
A------------------------------------------------
E------------------------------------------------


e--------13-15-
B------13------
G-9-10---------
D--------------
A--------------
E--------------



          C            G
Llegaste tú y todo cambio

          C                   G
Llegaste tú, la esperanza triunfó

          Dm             G
Llegaste tú uuuu uuuu uu u,  volví a nacer.



Final: G  y hacen un rasgueo hacia abajo Con C





Espero y les haya gustado la rola la vdd para mi se oie
perfecta es komo la toka joy si kieren ver vean un video
de jesse y joy de esta kancion y van a ver jejeje ;p

Alguna duda o komentario a mi korreo jejeje;p

Saludos su servilleta : Edgar jejeje xD
Versión 2 - Llegaste Tú (Letra y acordes)
Se utiliza cejilla en D#m, Dm, F y G.


C
Hundida yo estaba, ahogada en soledad

Em                                D#m(1 rasgueo)
Mi corazón lloraba de un vacío total

Dm
Todo lo intenté

F
por donde quiera te busqué

Am                  G
Eras tú mi necesidad

C
Triste y desolada ya no pude soportar

Em                                     D#m
Mas desesperada era imposible de estar

Dm
Todo lo intente

F
por donde quiera te busqué

Am
Eras tú mi necesidad

F              G
Alce mi rostro y...


Coro

          C             F
Llegaste tú y todo cambio

          C                 F
Llegaste tú la esperanza triunfó

              Dm     G
Llegaste túuuuuu, volvi a nacer



E|---------------------------------|
B|------------13h15p13--12---------|
G|--12/17-------------------12-----|
D|-----------------------------12~-|
A|---------------------------------|
E|---------------------------------|

C
Por tanto tiempo quise encontrar la solución

Em                                          D#m
a ese gran vacío que llevaba en mi interior

Dm
Todo lo intente

F
por donde quiera te busqué

Am
Eras tú mi necesidad

F              G
Alce mi rostro y...


Coro (igual al pasado)

          C             F
Llegaste tú y todo cambió

          C                 F
Llegaste tú la esperanza triunfó

              Dm G
Llegaste túuuuuu, volvi a nacer


Solo... empieza antes de q termine el coro
e|-------------------------13--12--------------------------------13-15--|
B|-------13-------------13--------13----------13--------------13--------|
G|--9-10----10-9---9-10-----------------9--10----10-9----9-10-----------|
D|----------------------------------------------------------------------|
A|----------------------------------------------------------------------|
E|----------------------------------------------------------------------|


(se repite coro)
          C             F
Llegaste tú y todo cambió

          C                  F
Llegaste tú la esperanza triunfó

         Dm G             C
Llegaste tú volví a nacer
Versión 3 - Llegaste Tú (Letra y acordes)
C
Hundida yo estaba, ahogada en soledad

Em                                D#m7-Dm7
Mi corazón lloraba de un vacío total

Dm7                        F
Todo lo intenté por donde quiera te busqué

     Am7                G
Eras tú mi necesidad

C
Triste y desolada ya no pude soportar

Em                                  D#m7-Dm7
Mas desesperada era imposible de estar

Dm7                        F
Todo lo intenté por donde quiera te busqué

     Am7                Am/G
Eras tú mi necesidad

F              G
Alce mi rostro y...


Coro

          C9             F
Llegaste tú y todo cambio

          C9                 F
Llegaste tú la esperanza triunfó

             Dm7     G
Llegaste túuuuuu, volvi a nacer

C Em  G

C
Por tanto tiempo quise encontrar la solución

Em                                          D#m
a ese gran vacío que llevaba en mi interior

Dm7                        F
Todo lo intenté por donde quiera te busqué

     Am7                Am/G
Eras tú mi necesidad

F              G
Alce mi rostro y...


Coro

          C9             F
Llegaste tú y todo cambio

          C9                 F
Llegaste tú la esperanza triunfó

             Dm7     G
Llegaste túuuuuu, volvi a nacer

C F C Am7  G

    C Dm Em            F  G Am7
Llegaste tú y todo cambió

    C Dm Em                    F  G Am7
Llegaste tú la esperanza triunfó

         Dm7 G           C Dm7 Em7 F  C
Llegaste tú volví a nacer
Versión 4 - Llegaste Tú (Tablatura para guitarra (TAB))
E|---------------------------------|
B|------------13h15p13--12---------|
G|--12/17-17----------------12-----|
D|-----------------------------12~-|
A|---------------------------------|
E|---------------------------------|


Solo... esto es antes de k termine el coro
e|-------------------------13--12--------------------------------13-15--|
B|-------13-------------13--------13----------13--------------13--------|
G|--9-10----10-9---9-10-----------------9--10----10-9----9-10-----------|
D|----------------------------------------------------------------------|
A|----------------------------------------------------------------------|
E|----------------------------------------------------------------------|

El material contenido en esta página es para exclusivo uso privado y con propósito meramente educativo, se prohibe su reproducción y uso con fines comerciales