You

Acordes de la canción 'You' de Hillsong United

http://www.youtube.com/watch?v=kd8JxXH3bdw

Intro y estrofa:

e|--7-7-7-9-9-9-11-11--11-7-7-7-------|
B|-----------------------------7-7-7--|
G|------------------------------------|
D|------------------------------------|
A|------------------------------------|
E|------------------------------------|

PRECORO:

e|-----------------------------------|
b|-----------------------------------|
G|-----------------16-16-16-15-15-15-|
D|---------16-16-16------------------|
A|-18-18-18--------------------------|
E|-----------------------------------|

e|-----------------------------------|
b|-----------------------------------|
G|-----------------16-16-16-15-15-15-|
D|---------16-16-16------------------|
A|-16-16-16--------------------------|
E|-----------------------------------|

e|-----------------------------------|
b|-----------------------------------|
G|-----------------16-16-16-15-15-15-|
D|---------16-16-16------------------|
A|-18-18-18--------------------------|
E|-----------------------------------|

e|-------------------------------------|
b|-------------------------------------| ESTO SE REPITE 2 VECES
G|-------------------------------------| EN LA SEGUNDA VEZ SE LE
D|-18-18-18-16-16-16-------------------| QUITA LA SUBIDA
A|-------------------18-18-18-16-16-16-| (18-18-18-16-16-16....)
E|-------------------------------------|

EN EL CORO HACE LO MISMO QUE LA INTRO Y LA ESTROFA

SE REPITE TODA LA CANCION

El material contenido en esta página es para exclusivo uso privado y con propósito meramente educativo, se prohibe su reproducción y uso con fines comerciales