Where we belong

Tabs, letra y acordes de 'Where we belong' por Hillsong United

Versiones disponibles: Tablatura para guitarra (TAB) - Letra y acordes

Hola,Dios les Bendiga, soy el miroro y aqui les dejo otra rola espero
que les sirva y que sea para la gloria de Dios.

WHERE WE BELONG de hillsong united.

Tablatura para guitarra electrica

intro

Nota: El intro y el verso se hace lo mismo solo que
en el verso bajas el volumen a 75 y en el intro
90, lo haces con Delay a tiempo 320ms.

e-----------------------------------------------
B-----------------------------------------------
G--8---8----8----8-----6----6---6/11 11 11-11---  x6
D----9---9----9----10----9----9-----------------
A-----------------------------------------------
E-----------------------------------------------

Precoro:

e---------9-11--------9-11-----9/14----
B------12----------12---------9--------
G--11-----------11-----------9---------
D--------------------------------------
A--------------------------------------
E--------------------------------------

e-----------------------------
B---12---12---11---11----12---
G-----11---11---11---11--11--- X2
D-----------------------------
A-----------------------------
E-----------------------------

CORO PRIMERO:Solo marca conforme vaya el ritmo, escucha los tiempos.

e-------------------------
B-----12---11---9---------
G-----11---11---9---------
D-------------------------
A-------------------------
E-------------------------

Intro
verso x1
precoro x2

CORO SEGUNDO:  Aqui en el coro hay 2 guitarras una hace esto.

        B ...  F# ...  E

Y en tablatura es lo mismo del coro primero solo que
lo marcas mas veces

INSTRUMENTAL

La guitarra junto con el sintetizador.

e------------------------------------------------
B------------------------------------------------
G----8--8--8---8----------------12-12-12-12------
D-----9--9---9---9---11-11-11-11-----------------
A------------------------------------------------
E------------------------------------------------

Precoro x2
Coro segundo x2
Intro

Eso es todo espero que les haya servido. hA y un saludo a los
chavos del grupo de alabanza de Betania, a Pablo pricipalmente,
Dios te bendiga brother, y gracias por hacer ver mis errores
ai esta mi correo por si tiene dudas miroro13@hotmail.com

BENDICIONES CHAVOS.
Versión 2 - Where we belong (Letra y acordes)
Intro:
C G
C G FM7 x2

C
No hay altura o profundidad
Am
No hay muerte ni vida
            G
Que pueda apartame
                  F
De todo lo que encuentro
             C
En tu gloria Señor

C
No hay otro poder o amor
Am
O algo que halla de venir
            G
No hay nada en la Tierra
          F
Que pueda apartarme
       C
De ti Señor

Am              G
Tu amor es eterno
            F
A ti yo me rindo
           C      G/B     Am
Tu que quitas todo mi pecado
                 G
Tu gracia sin razón
             F
Tu pagaste por mi
           Am    G
Yo soy vivo por ti

coro:

C
Hoy corro ante tu trono
                G
Donde he de pertencer
            F
Hoy cada corazon
                 C
Canta Jesús eres Dios

C
Hoy muero a lo que soy
             G
Por agradarte Señor
              F
Hoy deja caer tu gloria
              C
A nuestro corazón



Un saludo a todos mis amigos del anexo Arca de Dios
Dan, Juan, Damaris, Maria, Alexandra,
 Sandra, Cesia, Marcos, Lucia, y los otros

El material contenido en esta página es para exclusivo uso privado y con propósito meramente educativo, se prohibe su reproducción y uso con fines comerciales