What the world will never take

Acordes de la canción 'What the world will never take' de Hillsong United

Versiones de esta canción: Tablatura para guitarra (TAB) - Tablatura para bajo (bass tab) - Letra y acordes - Tablatura para bajo (bass tab) - Letra y acordes

Intro/Verso:

E|-------------------------------------|
B|-------------------------------------|
G|-------------------------------------|
D|-----7-6(x2)-7(x2)-----7-6(x2)-7(x2)-|
A|-------------------------------------|
E|-5(x2)------------5(x2)--------------|
                                       Todo se hace x2
E|-------------------------------------|
B|-------------------------------------|
G|-------------------------------------|
D|-----7-6(x2)-7(x2)-----7-6(x2)-7(x2)-|
A|-5(x2)------------5(x2)--------------|
E|-------------------------------------|

Pre-Coro:
E|-----------------------|
A|-----------------------|
G|-6(x2)-4-6(x4)-5-6(x2)-|
D|-----------------------|  x2
A|-----------------------|
E|-----------------------|

Coro:
Acordes:

A  D  F#m B D A
A  F#m  B D A
Nota:(apartir de F#m damos un rasgeo
       ahogamos y rasgueamos).


Instrumental:

E|-----------------------------------------------------
B|-------10-------10----10--------10-12-12-13-13-12-10-
G|-11-11----11-11----11-----10-10----------------------
D|-----------------------------------------------------
A|-----------------------------------------------------
E|-----------------------------------------------------

E|-----------------------------------|
B|-----------------------------------|
G|-----6-----6---6------8-----8---8--|
D|-7-7---7-7---7----9-9---9-9---9----|  X2
A|-----------------------------------|
E|-----------------------------------|

esto es para entrar al Coro
E|------------------|
B|------------------|
G|-----8-----8------|
D|-9-9---9-9---9-7--|
A|------------------|
E|------------------|
Versión 2 - What the world will never take (Tablatura para bajo (bass tab))
Verso 1
G---------------------------
D---------------------------
A---------------5-5---5-5---
E 5-5----5-5----------------

Verso 2
G---------------------------------
D---------------------------------
A----5s12-----------5-5---5-5-----
E 5-5------5-5--------------------

Pre-Coro
G---------------------------------
D---------------------------------
A-5-5-------------2-2----5-5------
E-------------2-2-----------------

G---------------------------------
D---------------------------------
A---------------------------------
E--5-5-5---7-7-7------------------

Coro
G-------------------------------
D-------------------------------
A---------5-4-------------------
E-5-5-5-5-----5-5-5-5-----------

G-------------------------------
D----------------------7--------
A-5-5--9-9--------5---5---------
E-------------7-7----------5----

G-------------------------------
D-------------------------------
A---------5-4-------------------
E-5-5-5-5-----5-5-5-5-----------

G-------------------------------
D----------------------7--------
A-9-9-9-9---------5---5---------
E-------------7-7----------5----

Puente
G---------------------------
D-----------------------10--
A-9-9-9-9-11--8-8-8---8-----
E---------------------------

G---------------------------
D---------------------------
A--------------------7s14---
E-5-5-5-5--7-7-7-7----------
Versión 3 - What the world will never take (Letra y acordes)
Intro

Guitar:
1----------------------------------
2----------------------------------
3-----2-1-1-1-2------2-1-1-1-0-----
4---------------0-0----------------
5-0-0------------------------------
6----------------------------------

Bajo: El bajo hace las notas ´´0´´
o sea la y re.



Estrofa I

A
  Con lo que hay dentro en mi ser
                    D
Con mis deseos y anhelos

Con todo lo que soñé

Estrofa II

A
  Con lo que yo espero ser
                       D
Y lo que el mundo traerá-a

Y lo que hay que cambiar

Pre-coro

D      F#m    Bm        D
  Tú quieres todo de mí
       A         Bm      A
El único camino para vivir


Coro
A
  Jesús el Salvador viviendo en mí
      D             F#m
Wow - Oh Yo quiero más,

 Bm         D          A
   Hoy conocer más de ti

Y Tu eres lo mejor que vino a mi
      F#m
Y el mundo no podrá
    Bm          D        A
Nunca podrá quitarte de mí


[Intro]

[Estrofa II]

[Pre-coro]

[Coro]

//Solo Guitar//

1-----5----5-5-----5-7-9-7-5----------------------------
2-7-7--7-7--7--6-6---------------2----2-2-----4---4-4---
3----------------------------2-2---2-2-2--4-4--4-4-4----
4-------------------------------------------------------
5-------------------------------------------------------
6-------------------------------------------------------

Bajo: El bajo entra cuando el solo de guitarra se
Vuelve a repetir haciendo las sigts notas:

1-------------------------------------------
2-------------------------------------------
3-9-9-9-9-11-8-8-8-8-9----------------------
4----------------------5-5-5-5-7-7-7-7------

Justamente cuando entra la guitarra de nuevo para
Hacer el solo, hay mismo entra el bajo.

[Coro]


   A                D       A
// No No podrán quitarte de mi //


Espero le haya sido de mucha bendición, cualquier duda mi
correo es jimmy_13_17_16@hotmail.com. Bendiciones.
Versión 4 - What the world will never take (Tablatura para bajo (bass tab))
Intro/Verso
G|-------------------------------------------------------------|
D|-------------------------------------------------------------|
A|-----------55----55---------------55----55-------------------|
E|55---55----------------55----55------------------------------|

Pre-Coro
G|-------------------------------------------------------------------|
D|-------------------------------------------------------------------|
A|------99------55---------------------------------------------------|
E|55--------77------5555/7775---------------------------------------|

Coro
G|-------------------------------------------------------------------|
D|-------------------------------------------------------------------|
A|---------5555/9999------55-------------9999999999999999------555--|
E|55555555-----------7777----5-55555555-------------------7777----5-|


Puente (part 1)
G|-------------------------------------------------------------------|
D|-------------------------------------------------------------------|
A|12121212121212121212121212121212-----------------------------------|
E|-------------------------------------------------------------------|

Guitar Solo

Puente (part 2)
G|-------------------------------------------------------------------|
D|-------------------------------------------------------------------|
A|9999|11|8888------------------1313131313131313---------------------|
E|-------------5-5-5-5-77777777--------------------------------------|
Versión 5 - What the world will never take (Letra y acordes)
El mundo no lo quitara de mí ser
(what the world will never take)

Int:   //  A/D - Dsus2   //

A/D
__ Con lo que podría esperar
                       Dsus2
Con mis deseos y esperanzas
                    A/D
Y los sueños que tendré

A/D
___ Y comparado a ti
                       Dsus2
Que puede el mundo ofrecerme
                Dmaj7
Nada se compara a ti
     F#m       B/E     Dmaj7
Tú  quieres   todo   de mí
       F#m            B/E       A
Es la forma en que te puedo servir

A                                      Dsus2
__El Salvador esta viviendo en mi, (wo ooo)
        F#m  B/E       Dsus2        A
Y ahora yo,  puedo sen-tir   su po-der
A
Es lo mejor que me ha pasado a mi
           F#m              B/E       Dsus2       A
Y el mundo no lo quitara, jamás lo quitara de mí ser

Intermedio: A - - - F#m - B/E - Dsus2  =  F#m - B/E
                    F#m - B/E - Dsus2  =  F#m - B/E

B/E----A
       __El Salvador esta viviendo..

A              Dsus2      A
Ja - mas lo quitara de mi ser
A              Dsus2      A
Ja - mas lo quitara de mi ser…




Saludo a los chavos de Estrella de Belén!!

El material contenido en esta página es para exclusivo uso privado y con propósito meramente educativo, se prohibe su reproducción y uso con fines comerciales