Tómalo

Acordes de la canción 'Tómalo' de Hillsong United

Versiones de esta canción: Letra y acordes - Tablatura para guitarra (TAB) - Tablatura para bajo (bass tab) - Letra y acordes - Tablatura para guitarra (TAB) - Letra y acordes

Intro: Bajo/Guitarra
B B B-Bb-D#m x4

1ªParte:
B
 De todo lugar
        Bb    D#m
Los perdidos vendràn
B
 En libertad
  Bb   D#m
A ti clamarán
B
 Llevaste  LA cruz
   Bb    D#m
Moriste, vivo estas
B
MI Dios
             Bb D#m
A ti mi vida te daré

Guitarra: //B B B-Bb-D#m//

2ªParte:
B
Enviaste a jesus
    Bb D#m
Por mi salvación
B
 Por la eternidad
      Bb   D#m
En ti tengo perdon
B
 Busque la verdad
  Bb  D#m
Y te encontre a ti
G#m
MI  Dios
     E
A ti mi vida te daré

CORO:
B         F#
Jesus por ti yo viviré
      G#m                E
De ti nunca me avergonzare
B       F#
Te doy todo lo que soy
C#m
Toma   tomalo
C#m
Toma   tomalo
Itro: //B B B-Bb-D#m//

2ªParte:
B
Enviaste a jesus
    Bb D#m
Por mi salvación
B
 Por la eternidad
      Bb   D#m
En ti tengo perdon
B
 Busque la verdad
  Bb  D#m
Y te encontre a ti
G#m
MI  Dios
     E
A ti mi vida te daré

CORO:
B         F#
Jesus por ti yo viviré
      G#m                E
De ti nunca me avergonzare
B       F#
Te doy todo lo que soy
C#m
Toma   tomalo
C#m
Toma   tomalo

B         F#
Jesus por ti yo viviré
      G#m                E
De ti nunca me avergonzare
B       F#
Te doy todo lo que soy
C#m
Toma   tomalo
C#m          B C#m D#m E
Toma   tomalo


PUENTE:
  C#m     G#m
//Eres el que vista
F#        E
Al ciego das
C#m        G#m      F#
Brillas en la obscuridad
    C#m         G#m
La  salvacion del mundo
F#    E
En tus manos
   B
Está//

Bajo: //B B B-Bb-D#m// B

CORO:
    B        F#
///Jesus por ti yo viviré
      G#m               E
De ti nunca me avergonzaré
B       F#
Te doy todo lo que soy
C#m            C#m
Toma   tomalo, toma   tomalo///
 C#m       B
Toma tomalo
Versión 2 - Tómalo (Tablatura para guitarra (TAB))
Buenoo esta es  mi primera colaboracion nomas le hice unos
areglos la otra esta muy bien pero creo ke oye mejor asi
porfa voten  esto es para la honra De Dios !!!!!!!!!!!!!


Intro/Verso - Guitarra 1
e|----------------------------14--14s16-|
B|--14-1414-12-1212-11-1111-12--12------|
G|--------------------------------------|
D|--------------------------------------|
A|--------------------------------------|
E|--------------------------------------|


Verso 1 - Guitarra 2
e|------------------------------------|
B|------------------------------------|
G|------------------------------------| este  punteo lo hace el bajo
D|---------------------------1-1------|   tambien
A|--2-2-2--2-2-2--2-2-2--1-1----------|
E|------------------------------------|

Coro
e|------------------------------------|
B|------------------------------------|
G|--4-4-4-4-4-4-4-4-------------------|
D|--4-4-4-4-4-4-4-4--4-4-4-4-4-4-4-4--|
A|--2-2-2-2-2-2-2-2--4-4-4-4-4-4-4-4--|
E|-------------------2-2-2-2-2-2-2-2--|

e|------------------------------------|
B|------------------------------------|
G|------------------------------------|
D|--6-6-6-6-6-6-6-6--2-2-2-2-2-2-2-2--|            x 1
A|--6-6-6-6-6-6-6-6--2-2-2-2-2-2-2-2--|
E|--4-4-4-4-4-4-4-4--0-0-0-0-0-0-0-0--|

e|---------------------------------------|
B|---------------------------------------|
G|--4-4-4-4-4-4-4-4-------------------6--|
D|--4-4-4-4-4-4-4-4--4-4-4-4-4-4-4-4--6--|
A|--2-2-2-2-2-2-2-2--4-4-4-4-4-4-4-4--4--|
E|-------------------2-2-2-2-2-2-2-2-----|


Intro/Verso - Guitarra 1
e|----------------------------14--14s16-|
B|--14-1414-12-1212-11-1111-12--12------|
G|--------------------------------------|
D|--------------------------------------|
A|--------------------------------------|
E|--------------------------------------|


Verso 1 - Guitarra 2
e|------------------------------------|
B|------------------------------------|
G|------------------------------------|
D|---------------------------1-1------|
A|--2-2-2--2-2-2--2-2-2--1-1----------|
E|------------------------------------|



Coro    x 2

Bridge 1
e|--------------------------------------|
B|--------------------------------------|
G|--------------------------------------|
D|--------------------------------------|
A|--22-44-66-77-------------------------|
E|--------------------------------------|

Bridge 2
e|------------------------------------------------------------------|
B|------------------------------------------------------------------|
G|--6-6-----------------------------6-6-----------------------------|
D|--6-6--6-6--4-4--2-2-2-2-2-2-2-2--6-6--6-6--4-4--2-2-2-2-2-2-2-2--|
A|--4-4--6-6--4-4--2-2-2-2-2-2-2-2--4-4--6-6--4-4--2-2-2-2-2-2-2-2--|
E|-------4-4--2-2--0-0-0-0-0-0-0-0-------4-4--2-2--0-0-0-0-0-0-0-0--|

e|-------------------------------------------------------------------|
B|-------------------------------------------------------------------|
G|--6-6----------------------------4-4-4-4-4-4-4-4--4-4-4-4-4-4-4-4--|
D|--6-6--6-6--4-4--2-2-2-2-2-2-2-2-4-4-4-4-4-4-4-4--4-4-4-4-4-4-4-4--|
A|--4-4--6-6--4-4--2-2-2-2-2-2-2-2-2-2-2-2-2-2-2-2--2-2-2-2-2-2-2-2--|
E|-------4-4--2-2--0-0-0-0-0-0-0-0-----------------------------------|

coro – x 2

final
e|-------------------------------------------------|
B|-------------------------------------------------|
G|--6--6--6--6---6--6--6--6---6-6-6-6-6-6-6-6---4--|
D|--6--6--6--6---6--6--6--6---6-6-6-6-6-6-6-6---4--|
A|--4--4--4--4---4--4--4--4---4-4-4-4-4-4-4-4---2--|
E|-------------------------------------------------|
Versión 3 - Tómalo (Tablatura para bajo (bass tab))
Intro/ verso           x10                                precoro  x1
G|------------------------                       G|---------------------|
D|--------------111-------                       D|---------------------|
A|222-222-222111----------                       A|---------------------|
E|------------------------                       E|4444444-0000000------|


Coro x1
G|----------------------------------------------------------------|
D|----------------------------------------------------------------|
A|222222-----------------------2222222-------4-4-444-4-4-444------|
E|------2222222-4444444-0000000-------2222222---------------------|


Intro/verso x5 y precoro

Coro x2

G|-----------------|
D|-----------------|
A|444444444--------|
E|-----------------|

G|-------------------------------
D|-------------------------------
A|44---------44-----44---------22
E|--44-22-00~--44-22---44-22-00--



G|--------------------------------------|
D|----------------111-------------------|
A|222-222-222111---x5---4-4-444-4-4-444-|
E|--------------------------------------|


G|------------------------------------
D|------------------------------------
A|2222222----------------------2222222
E|-------2222222-444444-0000000-------


G|----------------------------------------|
D|----------------------------------------|
A|------4-4-444-4-4-444-4-4-444-4-4-444~~-|
E|2222222---------------------------------|



bueno aqui esta mi colaboracon de bajo bueno alguna sugerencia o algo
rock_juanjo@hotmail.com entren a mi pagina www.rocksebna.tk
www.studiosmuse.tk
un saludo a blues joel que se va a argentina con su dvd
intruccional de guitara
bueno saludos a todos DIOS LOS BENDIGA
Versión 4 - Tómalo (Letra y acordes)
Intro: Bajo
B B B Bb     D#m

1ªParte:
B
De todo lugar
               Bb    D#m
Los perdidos vendràn
B
En libertad
          Bb   D#m
A ti clamarán
B
Llevaste  LA cruz
                Bb D#m
Moriste, vivo estas
B
MI Dios
                Bb D#m
A ti mi vida te daré

Guitarra: B B B Bb D#m

2ªParte:

B
Enviaste a jesus
             Bb D#m
Por mi salvación
B
Por la eternidad
              Bb D#m
En ti tengo perdon
B
Busque la verdad
B               G#m
Y te encontre a ti
G#m
MI  Dios
    E
A ti mi vida te daré

CORO:

       B           F#
Jesus por ti yo viviré
      G#m                    E
De ti nunca me avergonzaré
B              F#
Te doy todo lo que soy
C#m
Toma   tomalo
C#m
Toma   tomalo

SE REPITE LA CANCION DESDE LA 2DA. PARTE.

PUENTE:
C#m        G#m
Eres el que vista
F#        E
Al ciego das
C#m         G#m     F#
Brillas en la obscuridad
C#m               G#m
La  salvacion del mundo
F#     E
En tus manos
   B
Está. (2x)

Bajo: B B B Bb D#m

fin
C#m
Toma   tomalo.
C#m
Toma   tomalo
            F#
Toma   tomalo.


Es mi primer transcripcion aunque tengo muchisimas
de hillsong united, espero que les sirva,
cualquier duda o aclaracion  ps agreguenme en el msn
  sergiorct♦hotmail.com….jajaja
UN SUPER SALUDOTE A MI BANDA DE COMUNIDAD CRISTIANA
DE MEXICO EN AGUASCALIENTES…
AL JON, ALEX, MONI, JENNY, TERE, KRIS. PORRO, SAMMY, DANY
 LOS QUIERO UN BUEN CHAVOS.. GOD BLESS YOU
Versión 5 - Tómalo (Tablatura para guitarra (TAB))
MODIFICACION A LA TRANSCRIPCION DE:
juan josè ortiz avila (rock_juanjo@hotmail.com)
**********************************************************************

Intro - Guitarra 1
e|--9-9-9-7-7-7-6-6-6--14-14-14-------|
B|-----------------------12-12--------|
G|------------------------------------|
D|------------------------------------|    x 4
A|------------------------------------|
E|------------------------------------|

Verso 1 - Guitarra 1
e|--9-9-9-7-7-7-6-6-6--14-14-14-------|
B|-----------------------12-12--------|
G|------------------------------------|
D|------------------------------------|    x 9
A|------------------------------------|
E|------------------------------------|


Verso 1 - Guitarra 2 (viene despues de que guitarra 1 toque 4)
e|------------------------------------|
B|----------------------------8-8-----|
G|----------------------------8-8-----|
D|--9-9-9--9-9-9--9-9-9--8-8--6-6-----|    x 5
A|--9-9-9--9-9-9--9-9-9--8-8--6-6-----|
E|--7-7-7--7-7-7--7-7-7--6-6----------|

Coro
e|------------------------------------|
B|------------------------------------|
G|--4-4-4-4-4-4-4-4-------------------|
D|--4-4-4-4-4-4-4-4--4-4-4-4-4-4-4-4--|
A|--2-2-2-2-2-2-2-2--4-4-4-4-4-4-4-4--|
E|-------------------2-2-2-2-2-2-2-2--|

e|--9-9-9-7-7-7-6-6-6--14-14-14-------|
B|-----------------------12-12--------|
G|------------------------------------|
D|------------------------------------|    x 1
A|------------------------------------|
E|------------------------------------|

e|---------------------------------------|
B|---------------------------------------|
G|--4-4-4-4-4-4-4-4-------------------6--|
D|--4-4-4-4-4-4-4-4--4-4-4-4-4-4-4-4--6--|
A|--2-2-2-2-2-2-2-2--4-4-4-4-4-4-4-4--4--|
E|-------------------2-2-2-2-2-2-2-2-----|


Verso 2 - Guitarra 1
e|--9-9-9-7-7-7-6-6-6--14-14-14-------|
B|-----------------------12-12--------|
G|------------------------------------|
D|------------------------------------|    x 5
A|------------------------------------|
E|------------------------------------|
Verso 2 - Guitarra 2
e|------------------------------------|
B|----------------------------8-8-----|
G|----------------------------8-8-----|
D|--9-9-9--9-9-9--9-9-9--8-8--6-6-----|    x 5
A|--9-9-9--9-9-9--9-9-9--8-8--6-6-----|
E|--7-7-7--7-7-7--7-7-7--6-6----------|


Coro    x 2

Bridge 1
e|-----------------------------0-0-0-0--|
B|--0-0-0-0--2-2-2-2--4-4-4-4-----------|
G|--------------------------------------|
D|--------------------------------------|    x 1
A|--------------------------------------|
E|--------------------------------------|

Bridge 2
e|------------------------------------------------------------------|
B|------------------------------------------------------------------|
G|--6-6-----------------------------6-6-----------------------------|
D|--6-6--6-6--4-4--2-2-2-2-2-2-2-2--6-6--6-6--4-4--2-2-2-2-2-2-2-2--|
A|--4-4--6-6--4-4--2-2-2-2-2-2-2-2--4-4--6-6--4-4--2-2-2-2-2-2-2-2--|
E|-------4-4--2-2--0-0-0-0-0-0-0-0-------4-4--2-2--0-0-0-0-0-0-0-0--|

e|-------------------------------------------------------------------|
B|-------------------------------------------------------------------|
G|--6-6----------------------------4-4-4-4-4-4-4-4--4-4-4-4-4-4-4-4--|
D|--6-6--6-6--4-4--2-2-2-2-2-2-2-2-4-4-4-4-4-4-4-4--4-4-4-4-4-4-4-4--|
A|--4-4--6-6--4-4--2-2-2-2-2-2-2-2-2-2-2-2-2-2-2-2--2-2-2-2-2-2-2-2--|
E|-------4-4--2-2--0-0-0-0-0-0-0-0-----------------------------------|

coro – x 2

final
e|-------------------------------------------------|
B|-------------------------------------------------|
G|--6--6--6--6---6--6--6--6---6-6-6-6-6-6-6-6---4--|
D|--6--6--6--6---6--6--6--6---6-6-6-6-6-6-6-6---4--|   x 1
A|--4--4--4--4---4--4--4--4---4-4-4-4-4-4-4-4---2--|
E|-------------------------------------------------|

El tono del Intro me sonaba un poco muy bajo asi que asi es como
la escucho yo...espero la usen!
Versión 6 - Tómalo (Letra y acordes)
B
De todo lugar los perdidos vendrán,
B
en libertad a ti clamarán,
B
triunfaste en la cruz, por esto hoy vivo estás,
B
mi Dios, a ti mi vida te daré.

B
Enviaste a Jesús por mi salvación,
B
Por la eternidad en ti tengo perdón,
B G#m
Busqué la verdad y te encontré a ti,
E
mi Dios, a ti mi vida te daré.

B             F#
Jesús, por ti yo viviré,
         G#m                 E
de ti nunca me avergonzaré
B               F#
Te doy todo lo que soy,
C#m
toma, tómalo, toma, tómalo.
(verso 2 + coro x2)

B C#m G#m F# E
Eres el que vista al ciego das,
C#m G#m F#
Brillas en la oscuridad,
C#m  G#m F# E B
La salvación del mundo en tus manos está.




SI DESEAN ALGUNA EN PARTICULAR O TIENEN
ALGUNA DUDA MANDENME UN E-MAIL
LFE_BASS@HOTMAIL.COM

El material contenido en esta página es para exclusivo uso privado y con propósito meramente educativo, se prohibe su reproducción y uso con fines comerciales