Te doy gloria

Tabs, letra y acordes de 'Te doy gloria' por Hillsong United

Versiones disponibles: Tablatura para guitarra (TAB) - Letra y acordes

Intro:

C

E--------------
B--8-5---------  se repite indefinidamente
G------7-5-----  hasta cuando dice "la q me salvo",
D--------------  después empieza el arreglo.
A--------------
E--------------

           C            G
Cuan Hermoso Eres JESUS
           Am                F
Son Tus Palabras, Es Tu Amor
           C            G
Cuan Glorioso Eres JESUS
          Am                F
Es Tu Poder, Fue Tu Cruz.


Aquí hay un pequeño arreglo de la guitarra eléctrica

E--------------------------------------------5-5-5-5-5-5-5-5-5
B------5---------------------------------5-8------------------
G--5-7-----4-5-7---5-4-5-4-5-4-5---4-5-7----------------------
D-------------------------------------------------------------
A-------------------------------------------------------------
E-------------------------------------------------------------

            C              G
La Que Me Salvo Me Rescato
         Am                  F
Un Momento Ahí Nos Dio Libertad.

CORO:
                      C
//Te Doy Gloria Gloria
                     G
Te Doy Gloria Gloria
                     Am
Te Doy Gloria Gloria
             F
A Ti JESUS//


      F
//Con Una Corona
      G
De Espinos
      Am
Te Hiciste
      C
Rey Por Siempre// (6)

Espero que les sirva
Cualquier Duda a jaredhr23@gmail.com
Versión 2 - Te doy gloria (Letra y acordes)
   INTRO:

    C           G     Am      F
 E------------------------------
 B-------5--------5-6-5-----7s8-
 G--4s5----5-7--7-------7-5-----
 D------------------------------
 A------------------------------
 E------------------------------

  Verso1:
        C            G              Am            F
  Cuan hermoso eres Jesus son tus palabras es tu amor
        C             G           Am          F
  cuan glorioso eres jesus estu poder fue tu cruz
             C            G          Am                F
  la que me salvo, me rescato, tu poder hoy medio libertad

  Coro:
           C
   Te doy gloria, gloria...
           G
   Te doy gloria, gloria...
           Am                   F
   Te doy gloria, gloria, a ti Jesus...

  Verso2:

       C              G          Am              F
  con una corona de espinas, te hisiste rey por siempre
       C              G          Am              F
  con una corona de espinas, te hisiste rey por siempre.

ESPERO QUE LES SIRVA...
DIOS LOS BENDIGA... cualquier duda
marvin.martinezcastro@hotmail.com

El material contenido en esta página es para exclusivo uso privado y con propósito meramente educativo, se prohibe su reproducción y uso con fines comerciales