Take all of me

Acordes de la canción 'Take all of me' de Hillsong United

Versiones de esta canción: Letra y acordes - Tablatura para guitarra (TAB)

Coro

   G
Te amo
                G/D  D
Mi esperanza esta en Ti
        Am7     Em
Cristo Jesús tómame
              Dsus4 D
Me entrego a ti
A D  A  D A D A

verso1
D           A        D
Rompiste el mal con tu luz
       A     D   F#m7
Me sanó tu gran amor
D          A             D
Cuando la carga se aumentó
         A       D    Esus4  E
Me levanté sobre tus hombros

Pre coro
        Bm7
Amor más fuerte
             A        E
Amor que cubre el mal
              D      Bm7
Y puede al mundo salvar

Coro
    A
Te amo
              Esus  E
Mi esperanza esta en ti
         Bm7    F#m7
Cristo Jesús tómame
        Esus4  E
Me entrego a ti
    A
Te amo
              Esus  E
Mi esperanza esta en ti
          Bm7    F#m7
Cristo Jesús tómame
        Esus4  E
Me entrego a ti

verso2

Estoy en pie con mi Señor
Sobre los montes y el valle
Diste tu hijo por mí
Tu gracia es con lo que cuento


Pre coro
Amor más fuerte
Amor que cubre el mal
Y puede al mundo salvar


Coro

Te amo
Mi esperanza eres Tú
Cristo Jesús tómame
Me doy a ti
Te amo
Mi esperanza eres Tú
Cristo Jesús tómame
Me doy a Ti


Que sea de bendicion para sus congres. saludos
saludos a los chavos de semilla de vida (slp) y a las chavas tambien
Versión 2 - Take all of me (Tablatura para guitarra (TAB))
Tabs

Un rato antes de Verse
-12-9---------------
------10-9h10p9-----
----------------9--- (x2)
--------------------
--------------------
--------------------

Verso cantado
-12-9---------------
------10-9h10p9-----
----------------9--- (x2)
--------------------
--------------------
--------------------

--------------------------------
---10--10--10--10--10--10--10---
--------------------------------
-11--11--11--11--11--11--11--11-
--------------------------------
--------------------------------

-12-9---------------
------10-9h10p9-----
----------------9--- (x2)
--------------------
--------------------
--------------------

--9-9-9--------------------
---------12--12--12--12----
-9-9-9-9----9---9---9---9--
---------------------------
---------------------------
---------------------------

Instrumental 1
----------------------------------------
----------------------------------------
----------------------------------------
----------------------------------------
-5-4-4-5-4-2-0-4-2--2-4-5-5-5-4-0-5-4-2-
----------------------------------------

-----------------------------------------
-------------14h15-15-14--14-15-14-------
-------14h16-----------------------16-14-
-14h16-----------------------------------
-----------------------------------------
-----------------------------------------

--------------------------------------------
-14--------------------12-14-15--17b1917-15-
----16--14-13b14r13-------------------------
--------------------14----------------------
--------------------------------------------
--------------------------------------------

----------------
----14b15r14----
-14----------16-
----------------
----------------
----------------

Puente/Instrumental 2
-------0-------------------------
-----0---------------------------
---6------(repite continuamente)-
-7-------------------------------
---------------------------------
---------------------------------
Cuando entre la bateria, toca

-------0------------------------------
-----0------0-------------------------
---6------------(mantiene repitiendo)-
-7------7-6---7-----------------------
--------------------------------------
--------------------------------------

despues de algunas veces lo anterior hace esto
--------------------
------------10--12--
-7h9-9-(x6)---------
--------------------
--------------------
--------------------

o
-------------------------------
------------------------10-12--
-7h9-9--9h11-11-9-7-7h9--------
-------------------------------
-------------------------------
-------------------------------

-------------------------
---------------------10--
-7h9-9-7h9-9-9h11-11-----
-------------------------
-------------------------
-------------------------

Bendiciones
Fabian xD

El material contenido en esta página es para exclusivo uso privado y con propósito meramente educativo, se prohibe su reproducción y uso con fines comerciales