Su hijo dio

Acordes de la canción 'Su hijo dio' de Hillsong United

Versiones de esta canción: Tablatura para guitarra (TAB) - Letra y acordes - Tablatura para guitarra (TAB) - Tablatura para bajo (bass tab)

Hola muchachos aqui les dejo los tabs de la canción su Hijo dió
Hillsong United
Guitarra I & Guitarra II

Intro

Guitarra I
los numeros en corchetes se hacen con armónicos
   Fm          C#          A#            D#
e|-13-13-13-13-13-13-13-13-13-13-13-13------------------|
B|--------------------------------------------------[9]-|
G|--------------------------------------[9]-[9]-[9]-----|

   Fm          C#          A#            D#
e|-13-13-13-13-13-13-13-13-13-13-13-13-------8-9---------|
B|---------------------------------------8-9-------------|
G|-------------------------------------------------------|
( 2 veces)


Guitarra II
    Fm       C#       A#       D#
G|------------------------------------------|
D|--10-10----------------------6-6----------|
A|--8-8------11-11----8-8------6-6----------|
E|-----------9-9------6-6-------------------|


    Fm       C#       A#
G|------------------------------------------|
D|--10-10-----------------------------------|
A|--8-8------11-11----8-8-8-8-8-8-8-8-------|
E|-----------9-9------6-6-6-6-6-6-6-6-------|
( 2 veces)

Verso

Guitarra I
   Fm          C#          A#            D#
e|-13-13-13-13-13-13-13-13-13-13-13-13------------------|
B|--------------------------------------------------[9]-|
G|--------------------------------------[9]-[9]-[9]-----|(x3)
A la 4ª vez va continua, así:
   Fm          C#          A#            D#
e|-13-13-13-13-13-13-13-13-13-13-13-13-13-13-13-13------|
B|------------------------------------------------------|
G|------------------------------------------------------|

Guitarra II
    Fm       C#       A#       D#
G|------------------------------------------|
D|--10-10----------------------6-6----------|
A|--8-8------11-11----8-8------6-6----------|
E|-----------9-9------6-6-------------------|


    Fm       C#       A#
G|------------------------------------------|
D|--10-10-----------------------------------|
A|--8-8------11-11----8-8-8-8-8-8-8-8-------|
E|-----------9-9------6-6-6-6-6-6-6-6-------|

Precoro
Guitarra I
   C#
e|-----------------------------------------------------|
B|--8h9-8v----8h9-8v----8h9-8v----8h9-8v---------------|
G|-8---------------------------------------------------|
D|-----------------------------------------------------|
   Fm                G#
e|------8--------8-------8---11-9-8--------------------|
B|----9---9----9---9---9---9---------------------------|
G|-10-------10-------9---------------------------------|
D|-----------------------------------------------------|
   C#
e|-----------------------------------------------------|
B|--8h9-8v----8h9-8v----8h9-8v----8h9-8v---------------|
G|-8---------------------------------------------------|
D|-----------------------------------------------------|
   Fm                 A#m
e|------8--------8--------8--------8-------------------|
B|----9---9----9---9----9---9----9---9-----------------|
G|-10-------10-------10-------10-----------------------|
D|-----------------------------------------------------|

Guitarra II
    C#
e|--4-4-----4-4-----4-4-----4-4------------------------|
B|--x-x-----6-6-----x-x-----6-6------------------------|
G|--6-6-----6-6-----6-6-----6-6------------------------|
D|--6-6-----6-6-----6-6-----6-6------------------------|
A|--4-4-----4-4-----4-4-----4-4------------------------|
E|-----------------------------------------------------|

   Fm                G#
G|-----------------------------------------------------|
D|-----------------------------------------------------|
A|-3-3-3-3-3-3-3-3-6-6-6-6-----------------------------|
E|-1-1-1-1-1-1-1-1-4-4-4-4-----------------------------|

    C#
e|--4-4-----4-4-----4-4-----4-4------------------------|
B|--x-x-----6-6-----x-x-----6-6------------------------|
G|--6-6-----6-6-----6-6-----6-6------------------------|
D|--6-6-----6-6-----6-6-----6-6------------------------|
A|--4-4-----4-4-----4-4-----4-4------------------------|
E|-----------------------------------------------------|

   Fm                 A#m
G|-----------------------------------------------------|
D|---------------3---3-3-3-3-3-3-----------------------|
A|-3-3-3-3-3-3-3-1---1-1-1-1-1-1-----------------------|
E|-1-1-1-1-1-1-1---------------------------------------|

Coro

Guitarra I
    G#  D#  Fm  C#  Fm  D#  Cm  C#
e|-----------------------------------------------------|
B|--9---8---9---6---9---8---4---6----------------------|
G|--8---8---10--6---10--8---5---6----------------------|
D|--6---8---10--6---10--8---5---6----------------------|
A|-----------------------------------------------------|

Guitarra II
    G#   D#   Fm   C#    Fm  D#   Cm   C#
G|------------------------------------------------------|
D|-------8…---10…--6…---10…--8…---6…---7…---------------|
A|--6…---6…---8…---4…---8…---6…---4…---5…---------------|
E|--4…--------------------------------------------------|

Puente
Bueno, en esta parte les recomiendo que se guíen con la música
1° etapa
Guitarra I
    G#                C#
e|-------------------------------------------------------|
B|--11h13--------9-11-8----------------------------------|
G|--------8-10--------10---------------------------------|
D|-------------------------------------------------------|

Guitarra II
    G#                C#
G|-------------------------------------------------------|
D|--------------------6(let ring) -----------------------|
A|--6(let ring) ------4(let ring) -----------------------|
E|--4(let ring) -----------------------------------------|

2° etapa

En esta parte “Guitarra I” hacer un slide pero sin hacer vibrar la cuerda
Solo deja que la yema de los dedos de tu mano izquierda
Produzca el sonido con el roce, al llegar al traste 13 toca
LA cuerda
   G#
e|------------------------------------------------|
B|--(1) sssssssssssssssssss13----13……-------------|
G|--(1) sssssssssssssssssss13----13……-------------|
D|------------------------------------------------|
Aquí un slide suave
e|------------------------------------------------|
B|--13ssssssssssssssssss (1) ---------------------|
G|--13ssssssssssssssssss (1) ---------------------|
D|------------------------------------------------|

Guitarra II
   G#
G|------------------------------------------------|
D|------------------------------------------------|
A|--6-6-6-6-6-6-6-6-6-6-6-6-6-6-6-6-6(let ring) --|
E|--4-4-4-4-4-4-4-4-4-4-4-4-4-4-4-4-4(let ring) --|

3° etapa

Guitarra I
    C#
G|------------------------------------------------|
D|---------------------10v------------------------|
A|--4(let ring) -------------4(let ring) ---------|
E|------------------------------------------------|
Guitarra II C#5

4° etapa
Guitarra I
   G#
e|------------------------------------------------|
B|--(1) sssssssssssssssssss13----13……-------------|
G|--(1) sssssssssssssssssss13----13……-------------|
D|------------------------------------------------|
Aquí un slide suave
e|------------------------------------------------|
B|--13ssssssssssssssssss (1) ---------------------|
G|--13ssssssssssssssssss (1) ---------------------|
D|------------------------------------------------|

Guitarra II G#
Ir al tiempo para hacer un slide haciendo rozar
LA plumilla (“pick”)
Desde la mitad entre el ultimo traste de tu guitarra
y el puente hasta casi llegar como al traste 4
D|------------------------------------------------|
A|---///////////////////////////-(4) -------------|
E|--///////////////////////////-(4) --------------|

Y terminar con el coro y el intro

bueno eso es todo, espero que les guste y disfruten de
esta canción y sobre todo darle la gloria al Rey de los Cielos
un saludo desde la iglesia "Casa del Rey" en B/quilla
¡ Bendiciones!
Versión 2 - Su hijo dio (Letra y acordes)
Su hijo dio

Fm C# A# D# Fm
Cuando miro al mundo sé que en ti
C# A# Fm
el futuro, seguro está.
C# A# D# Fm
Podemos ver tu gran amor,
C# A# C#
Nos creaste, a tu imagen.

Fm G# D#
Jesús vino a darnos salvación,
C# C#
Llevó mi pecado y mi dolor,
Fm A#m
Ahora justo soy en Él.

G# D# Fm C#
Dios a su hijo dio, Jesús mi redentor,
Fm D# Cm C#
Me salvó, nuevo soy, viviré por Él. (intro)

Fm C# A# D# Fm
En ti he encontrado libertad,
C# A# Fm
pues tu vida, diste por mí.
C# A# D# Fm
En tu palabra quiero andar,
C# A# C#
Mi padre, tu luz brilla en mí.

(pre-coro y coro x2)

G# C#
//En tu palabra andaré y en tu luz brillaré,
G#
Siempre te alabaré, cantaremos.//

Cantaremos, cantaremos, cantaremos.

(Coro x 2) (fin: por Él, por Él + intro)
Versión 3 - Su hijo dio (Tablatura para guitarra (TAB))
ARMONICO: consiste en tokar la cuerda con la pua y al mismo tiempo
rosarla con tu dedo de esta forma se produce un sonido agudo q es
octava mas alta..!!

II Guitarra

toda esta parte se hace con armonicos
      Fm            C#         A#          D#
E----------------------------------------------------
A----------------------------------------------------
D----------------------------------------------------
G----------------------------------------------------
B--9-9-9-9-------9-9-9-9-----9-9-9-9-----8-9---------
e-------------------------------------------8-9------

esta parte tbm a exepcion del ultimo punteo
     Fm          C#             A#
E----------------------------------------------------
A----------------------------------------------------
D----------------------------------------------------
G----------------------------------------------------
B-9-9-9-9-----9-9-9-9----9-9-9-9----8-9--------------
e--------------------------------------8-9-----------


antes de entrar al puente

E----------------------------------------------------
A----------------------------------------------------
D----------------------------------------------------
G------------------8-10-------8/10-------------------
B--11h13-13-13~--------9-11-8------------------------
e----------------------------------------------------
Versión 4 - Su hijo dio (Tablatura para bajo (bass tab))
INTRO
E)---------66----|-------6666666--|  x2
A)------44----66-|----44----------|
D)---33----------|-33-------------|
G)---------------|----------------|

VERSO
E)-------------6666------|-----------6666666---| x2
A)--------4444------6666-|------4444-----------|
D)--3333-----------------|-3333----------------|
G)-----------------------|---------------------|

PRE-CORO
E)--------------------------------------|
A)--44----44----------------------66666-|
D)----------------6-33333333--666-------|
G)-----66----6-5-3----------------------|

E)---------------------------6-6-6-6-|
A)--44----44-------------------------|
D)----------------6-33333333---------|
G)-----66----6-5-3-------------------|

CORO
E)---4-4-4-----------------------------------------------|
A)---------6-6-6-----6-4-4-4-------6-6-6-3-3-3-3-4-4-4-4-|
D)---------------3-3---------3-3-3-----------------------|
G)-------------------------------------------------------|

INTRO X1
VERSO 2 (se toca igual que el anterior)
PRE-CORO
CORO X2

E)--44444444444444444444444444444-1~----4~s/1-|
A)--------------------------------------------|
D)--------------------------------------------|
G)--------------------------------------------|

E)--1~--4~s/1-4444444444444444--|
A)------------------------------|
D)------------------------------|
G)------------------------------|

CORO X2
INTRO X2

AQUÍ TERMINA LA CANCIÓN LA PARTE MAS COMPLICADA
ES EL INSTRUMENTAL QUE ESTA DESDE EL MINUTO (1:50)

LA S/ SIGNIFICA SLIDE SI TIENEN DUDAS LES MANDO MI EMAIL

Emo_x_kore@hotmail.com

Saludo a la iglesia cuadrangular Emmanuel y a sus pastores

El material contenido en esta página es para exclusivo uso privado y con propósito meramente educativo, se prohibe su reproducción y uso con fines comerciales